New Found Glory - Sucker Chords & Tabs

 

Sucker Chords & Tabs

New Found Glory Chords & Tabs

Version: 1 Type: Tab 0 ratings
1 star 2 stars 3 stars 4 stars 5 stars
comments

Sucker Tab

New Found Glory
"Sucker"
New Found Glory
Tabbed By: BD Divens
Arranged for 1 Guitar


Intro (x2)
e-------------------------------------
B-------------------------------------
G--66-xx-x66--13/11-11/10-10/8-8/6-6--
D--66-xx-x66---x/-x--x/-x--x/x-x/x-x--
A--44-xx-x44--11/-9--9/-8--8/6-6/4-4--
E-------------------------------------

Verse (x4)
e-------------------------------
B-------------------------------
G--66-xx-x66-xxx----------------
D--66-xx-x66-xxx-44-xx-x22-xxx--
A--44-xx-x44-xxx-44-xx-x22-xxx--
E----------------22-xx-x22-xxx--
[ Tab from: http://www.guitartabs.cc/tabs/n/new_found_glory/sucker_tab.html ]
Pre-Chorus
e-----------------------------------------
B-----------------------------------------
G--------------------------------6-6------
D--8888-4444-8888-6666-8888-4444-6-6-6-6--
A--8888-4444-8888-6666-8888-4444-4-4-6-6--
E--6666-2222-6666-4444-6666-2222-----4-4--

Chorus/Outro (x4)
e-----------------------------
B-----------------------------
G--66-xx-x66-xx-x66-xxx-------
D--66-xx-x66-xx-x66-xxx-88-6--
A--44-xx-x44-xx-x44-xxx-88-6--
E-----------------------66-4--

Post-Chorus
e-------------------------------
B-------------------------------
G-----------6-------------------
D--4--------6-6-4--------4/6-6--
A--4--------4-6-4--------4/6-6--
E--2----------4-2--------2/4-4--

Comments