New Found Glory - Story So Far Chords & Tabs

 

Story So Far Chords & Tabs

New Found Glory Chords & Tabs

Version: 1 Type: Tab 0 ratings
1 star 2 stars 3 stars 4 stars 5 stars
comments

Story So Far Tab

Title:  The Story So Far   By: New Found Glory Tabbed: Justin
[ Tab from: http://www.guitartabs.cc/tabs/n/new_found_glory/story_so_far_tab.html ]
            Intro/Verse
E|-----------------------------------------------------------
B|-----------------------------------------------------------
G|--5-5-5-------------------------------------------------------
D|--5-5-5--3-----------------------------------------------------
A|--3-3-3--3--(let ring)---------------------------------------------------
E|---------1---------------------------------------------------
             
             Chorus
E|-----------------------------------------------------------
B|-----------------------------------------------------------
G|--5----5------3-----------------------------------------------
D|--5--3-5--3---3--3-----------------------------------------------
A|--3--3-3--3---1--3-------------(listen to the song for struming)----------------------------------
E|-----1----1------1--------------------------------------------

Thats it, this is my first tab and its 100% correct
Email me at Boylikeswater@hotmail.com for any comments....
Comments