New Found Glory - Sonny Chords & Tabs

 

Sonny Chords & Tabs

New Found Glory Chords & Tabs

Version: 6 Type: Tab 0 ratings
1 star 2 stars 3 stars 4 stars 5 stars
comments

Sonny Tab

This is my first ever go at tabbing a song, so im sorry if there are any 
mistakes! 

x= mute string

intro

e|------------------------------------
B|--2-0-2-0---------------------------
G|--2-2-2-2-1-2-1-2-------------------
D|--2-2-2-2-2-2-2-2-------------------
A|--0-0-0-0-x-x-x-x-------------------
E|----------2-2-2-2------------------- (x2)

First verse (is in fact same as intro which makes it easier!)

e|------------------------------------
B|--2-0-2-0---------------------------
G|--2-2-2-2-1-2-1-2-------------------
D|--2-2-2-2-2-2-2-2-------------------
A|--0-0-0-0-x-x-x-x-------------------
E|----------2-2-2-2------------------- (x4)

chorus 

e|--2-0---------0-2-0---------0-2-0-2-
B|--3-0---------0-3-0---------0-3-0-2-
G|--2-1-1-2-1-2-1-2-1-1-2-1-2-1-2-1-2-
D|--0-2-2-2-2-2-2-0-2-2-2-2-2-2-0-2-4-
A|----2-x-x-x-x-2---2-x-x-x-x-2---3-4-
E|----0-2-2-2-2-0---0-2-2-2-2-0---0-2-


bit after chorus
[ Tab from: http://www.guitartabs.cc/tabs/n/new_found_glory/sonny_tab_ver_6.html ]
e|------------------------------------
B|--2-0-2-0---------2------------------
G|--2-2-2-2-1-2-1-2-2------------------
D|--2-2-2-2-2-2-2-2-2------------------
A|--0-0-0-0-x-x-x-x-0------------------
E|----------2-2-2-2-------------------


second verse (half is bass only) then same as first verse 

e|------------------------------------
B|--2-0-2-0---------------------------
G|--2-2-2-2-1-2-1-2-------------------
D|--2-2-2-2-2-2-2-2-------------------
A|--0-0-0-0-x-x-x-x-------------------
E|----------2-2-2-2------------------- (x2)



Chorus 2

e|--2-0---------0-2-0---------0-2-0-2-0-2-0-2-0-2-2-0-2-0-2-0-2-0--
B|--3-0---------0-3-0---------0-3-0-2-0-3-0-2-0-3-3-0-2-0-3-0-2-0--
G|--2-1-1-2-1-2-1-2-1-1-2-1-2-1-2-1-2-1-2-1-2-1-2-2-1-2-1-2-1-2-1--
D|--0-2-2-2-2-2-2-0-2-2-2-2-2-2-0-2-4-2-0-2-4-2-0-0-2-4-2-0-2-4-2--
A|----2-x-x-x-x-2---2-x-x-x-x-2---3-4-2---2-4-2-----2-4-2---2-4-2--
E|----0-2-2-2-2-0---0-2-2-2-2-0---0-2-0---0-2-0-----0-2-0---0-2-0--


End with the intro


e|------------------------------------
B|--2-0-2-0---------2-----------------
G|--2-2-2-2-1-2-1-2-2-----------------
D|--2-2-2-2-2-2-2-2-2-----------------
A|--0-0-0-0-x-x-x-x-0-----------------
E|----------2-2-2-2------------------- (x1)

you have to listen to the song to sort out the strumming

sorted. any problems or if u just wanna chat u can contact me on
Horny_little_she_devil666@hotmail.com
Comments