New Found Glory - Sonny Chords & Tabs

 

Sonny Chords & Tabs

New Found Glory Chords & Tabs

Version: 5 Type: Tab 0 ratings
1 star 2 stars 3 stars 4 stars 5 stars
comments

Sonny Tab

New Found Glory: sonny… tab the correct way : submitted by Cory

e----------------------------------------------------------------------------------------------
b----------------------------------------------------------------------------------------------
g---6-6-x-x-x---4-4—x-x-x—6-6-x-x-x-4-4-4-4---------------------------------------
d---7-7-x-x-x---6-6-x-x-x-7-7-x-x-x-6-6-6-6---------------------------------------
A--------------------------------------------------------------------------------------------
E-----------------------------------------------------------------------------------------------
-
e-----------------------------------------------------------------------------------------------
b------------------------------------------------------------------------------------------------
g---2-2-x-x-x---1-1—x-x-x---2-2-x-x-x-1-1-1-1--------------------------------------
d---4-4-x-x-x---2-2-x-x-x---4-4-x-x-x-2-2-2-2--------------------------------------
A--------------------------------------------------------------------------------------------
E--------------------------------------------------------------------------------------------
[ Tab from: http://www.guitartabs.cc/tabs/n/new_found_glory/sonny_tab_ver_5.html ]
e-----------------------------------------------------------------------------------------------
b-----------------------------------------------------------------------------------------------
g-----------------------------------------------------------------------------------------------
d-7-7-6p7-9-9-7-7-6p7-9-9-7p9-11-11-11p12-9-9-7p9-11-11-11-12-9-7-9-7-6-7---------------------
A----------------------------------------------------------------------------------------------

CHORUS

e-----------------------------------------------------------------------------------------------
b-----------------------------------------------------------------------------------------------
g---7-7-7-7-7----------9-9-9-9-9-9-9-9---------------------------------------------------------
d---7-7-7-7-7----------9-9-9-9-9-9-9-9-----4-4-4-4-4-4-4--------2-2-2-2------------------------
A---5-5-5-5-5----------7-7-7-7-7-7-7-7-----4-4-4-4-4-4-4--------2-2-2-2-----------------------
E------------------------------------------2-2-2-2-2-2-2--------0-0-0-0-----------------------

Listen to song for strumming everything in song is in here except the little solo and if you cant figure it out write me and ill tab it……
Comments