New Found Glory - Sonny Chords & Tabs

 

Sonny Chords & Tabs

New Found Glory Chords & Tabs

Version: 11 Type: Tab 0 ratings
1 star 2 stars 3 stars 4 stars 5 stars
comments

Sonny Tab

*Intro           2nd Guitar (no one tabs this part to it!)
E -----------------------------------------------------------------------------
B -----------------------------------------------------------------------------
G -6-6------9-9------6-6-------9-9-9-9------6-6--6h7----------6-6--6h7---------
D ------6h7------6h7------6h7------------------------9-9--6h7----------9-9-7~--
A -----------------------------------------------------------------------------
E -----------------------------------------------------------------------------
[ Tab from: http://www.guitartabs.cc/tabs/n/new_found_glory/sonny_tab_ver_11.html ]
*Chorus
E ---------------------------------------------------------
B ---------------------------------------------------------
G -7-------9-----------------------------------------------
D -7-------9-------4-4--x-x--4-4--x-x--4-4--x-x--4-4-4-4---
A -5(12x)--7(12x)--4-4--x-x--4-4--x-x--4-4--x-x--4-4-4-4---
E -----------------2-2--x-x--2-2--x-x--2-2--x-x--2-2-2-2---
   ________________________2x___________________________

E --------------------
B --------------------
G -7------9-----------
D -7------9-----------
A -5(12x)-7(7x)-------
E --------------------
Comments