New Found Glory - Sonny Chords & Tabs

 

Sonny Chords & Tabs

New Found Glory Chords & Tabs

Version: 1 Type: Tab 0 ratings
1 star 2 stars 3 stars 4 stars 5 stars
comments

Sonny Tab

   
New Found Glory - Sonny [ por Thiago Vargas E. Azevedo ]


Afine o E em F#


Intro:
             p1                               p2
e---------------------------------------------------------------------------------------
b---------------------------------------------------------------------------------------
g---------------------------------------------------------------------------------------
d----11--11----11---11---11---11--11--11--11--------------------------------------------
a----0---0----0-----0---0----0---0---0---0---12--12--11--11--12---12--11--11--11--11---9
f#--------------------------------------------0---0---0---0---0----0---0---0---0---0---0

Solo:

e---------------------------------------------------------------------------------------
b---------------------------------------------------------------------------------------
g---------------------------------------------------------------------------------------
d------------------9--9--------------------------9--9----------11--11--11--12--9--9----9
a--12--12--11--12--------12--11--12--12--11--12--------12--11---------------------------
f#----------------------------------------------------------------------------------12--

intro
[ Tab from: http://www.guitartabs.cc/tabs/n/new_found_glory/sonny_tab.html ]
I'm sorry
I heard about the bad news today
a crowd of people areound you
telling you its okay
and everything happens for a reason
when you lose a part of your self
to somebody you know
it takes a lot to let go
every breath that you remember
pictures stayed away
but memories forever

D	 E        intro(p2)
an empty chair at all the tables
and i'll be seeing you
when all my days boil down
but its better where your going anyway

solo

intro

I'm sorry
I heard about the bad new today
its really hard to get through
tough times and long days
but it really just depends on the season
when you lose a part of your self
to somebody you know
it takes a lot to let go
every breath that you remember
pictures stayed away
but memories forever

D         E               intro(p2
an empty chair at all the tables
and i'll be seeing you at all my
when all my days boil down

D         E     Fm#   E
for now we'll say goodbye
we know its not the last time
I've lost the best part of my day
but its better where your going anyway
an empty chair at all the tables
and i'll be seeing you
when all my days boil down
for now we'll say goodbye
we know its not the last time
I've lost the best part of my day
this is the last thing I
I will remember
but its better where your going anyway

Essa é a melhor tab de Sonny q vc pode achar na net!
This is the best sonny tab that u can find!

Dúvidas?
doubts?
VELHO PUNK!!!!!!!!
Comments