New Found Glory - Sonny Chords & Tabs

 

Sonny Chords & Tabs

New Found Glory Chords & Tabs

Version: 1 Type: Bass Tab 0 ratings
1 star 2 stars 3 stars 4 stars 5 stars
comments

Sonny Bass Tab

Artist- New Found Glory
Album- Sticks And Stones
Song- Sonny
Tabbed by Josh Becker (becker360@hotmail.com)

This took me about two days to do... This is my favorite New Found Glory song
and couldn't find tabs, so I figured it out myself. It probably took me an
hour or so total, I didn't work on it a LOT but I think its pretty good... 
tell me what you think, or give any corrections.


Verse:
G|------------------------------------------------------------------------|
D|---------9-9-------------9-9---------------4-4----------------4-4-------|
A|-----7/9-----9\7------7/9----9\7-------2/4-----4\2--------2/4-----4\2---|
E|-5-5---------------5-5-----------2-2-----------------2-2----------------|


Chorus:
|------------------------------------------|
|------------------------------------------|
|-55555555-77777777-99xx99xx99xx--9-7-5----|
|------------------------------------------|

[ Tab from: http://www.guitartabs.cc/tabs/n/new_found_glory/sonny_btab.html ]
Chorus Ending:
|--------------------|
|--------------------|
|-55555555-77777777--|
|--------------------|


Alternate Chorus Ending:
|------------------------------------------|
|------------------------------------------|
|-55555555-77777777------------------------|
|-------------------22222222-00000000------|


Bridge (Start playing at 2:20):
|-----------------------------------------------|
|--------99------------44------------44---------|
|----7/9----9\7----2/4----4\2----2/4----4\2-----|
|-55------------22------------22----------------|


Song End:
|----------------------------------------------|
|----------------------------------------------|
|----------------------------------------------|
|--5-let-it-ring-------------------------------|


Song Order

Verse               x5
Chorus              x2
Chorus Ending       x1
Verse               x5
Chorus              x2
Alt. Chorus Ending  x2
Chorus Ending       x1
Bridge              x1
Verse               x1
Chorus              x2
Alt. Chorus Ending  x3
Chorus Ending       x1
Song End            x1
Comments