New Found Glory - Something I Call Personality Chords & Tabs

 

Something I Call Personality Chords & Tabs

New Found Glory Chords & Tabs

Version: 4 Type: Tab 0 ratings
1 star 2 stars 3 stars 4 stars 5 stars
comments

Something I Call Personality Tab

   
-----------------------------------------------------------------------------
    SOMETHING I CALL PERSONALITY -New Found Glory
-----------------------------------------------------------------------------
Tabbed by: Zach
Email:HaZyARc13@aol.com
Tuning: standard
-hey, this is my first tab, ive been playin 4 about 8 months, but i think this is 99.9% 
tell me wat u think. thanx
  2x  Intro
e|------------------------------------------------------------------|
B|------------------------------------------------------------------|
G|-----------1---1--------------------------------------------------|
D|---(2h)4----2----4-2--4-2----2-4-2--4---2--1----------------------|
A|--------------------------2-----------1------4-2----2-4-----------|
E|--------------------------------------------------2---------------|
  4x verse guitar1->last time play ()
e|------------------------------------------------------------------|
B|------------------------------------------------------------------|
G|------------------------------------------------------------------|
D|---2x-----2x-2x-----2x-------(222)--------------------------------|
A|---0x2x-2x0x-0x4x-4x0x--(444)-(000)-------------------------------|
E|-----0x-0x-----2x-2x---(222)--------------------------------------|
 2x fill (2nd guitar)
e|------------------------------------------------------------------|
B|------------------------------------------------------------------|
G|-------------------------------on last time>(---------------------|
D|-------------22222222------------22222222---(------222------------|
A|---22222222--00000000--44444444--00000000---(-444--000------------|
E|---00000000------------22222222-------------(-222-----------------|
  Chorus
e|------------------------------------------------------------------|
B|------------------------------------------------------------------|
G|---------------------------4444-----------------------------------|
D|---------2222--6666--------2222--2222--6666--4444-----------------|
A|---2222--0000--4444--4444--------0000--4444--2222-----------------|
E|---0000--------------2222-----------------------------------------|
  Bridge I                                                         2x
e|------------------------------------------------------------------|
B|------------------------------------------------------------------|
G|------------------------------------------------------------------|
D|------------------------------------------------------------------|
A|---------------------------------------0000--2222-----------------|
E|---0000--2222--4444--2222--0000--2222-----------------------------|
  Bridge II
e|------------------------------------------------------------------|
B|------------------------------------------------------------------|
G|------------------------------------------------------------------|
D|---2------2--2-6--6-2--2------2--2-4--4-2-------------------------|
A|---0-2--2-0--0-4--4-4--4-2--2-0--0-2--2-0-------------------------|
E|-----0--0----------------0--0-------------------------------------|

  END
e|-----|    Play in this order:
B|-----|     Intro->verse, then add fill->chorus2x->intro part->verse/fill--->
G|-----|      chorus4x->bridgeI,2x->bridgeII,2x->chorus4x-------------------->Intro part->END
D|-2---|
A|-0-2-|
E|---0-|
| h  hammer-on
| x  Mute note
=============================================================================
[ Tab from: http://www.guitartabs.cc/tabs/n/new_found_glory/something_i_call_personality_tab_ver_4.html ]
Comments