New Found Glory - Something I Call Personality Chords & Tabs

 

Something I Call Personality Chords & Tabs

New Found Glory Chords & Tabs

Version: 3 Type: Tab 0 ratings
1 star 2 stars 3 stars 4 stars 5 stars
comments

Something I Call Personality Tab

New Found Glory
Something I Call Personality(Live/Cd versions)
Sticks & Stones
Standard Tuning
Guitar 1
Guitar 2
Tabbed By: Mike, NewFoundWeez182@aol.com

Intro Gt 1
e-----------part-1-----------|----------part-2----------
B----------------------------|--------------------------
G----------------------------|--------------------------
D-----6---6------------------|---6---6------------------
A-7-9---7---9-7-9-7---7-9-9--|-9---7---9-7-9-7---7-9-9--
E-------------------7--------|-----------------7--------

Intro Gt 2
e-----------------------------
B-----------------------------
G-2--------2-2--2--------2-2--
D-2-2-2--2-2-2--2-4-4--4-2-2--
A-0-2-2--2-0-0--0-4-4--4-0-0--
E---0-0--0--------2-2--2------

Verse Both Gt's
e---------------------
B---------------------
G-2------2--2------2--
D-2-2--2-2--2-4--4-2--
A-0-2--2-0--0-4--4-0--
E---0--0------2--2----

Pre-Chorus(x=p.m.)Both Gt's
e---------------part-1--------------------|---------------part-2---------------
B-----------------------------------------|------------------------------------
G-2-----------2xxxxx--2-----------2xxxxx--|-2-----------2xxxxx-2----------222--
D-2-2xxxxx--2-2xxxxx--2-4xxxxx--4-2xxxxx--|-2-2xxxxx--2-2xxxxx-2-444xxxxx-222--
A-0-2xxxxx--2-0xxxxx--0-4xxxxx--4-0xxxxx--|-0-2xxxxx--2-0xxxxx-0-444xxxxx-000--
E---0xxxxx--0-----------2xxxxx--2---------|---0xxxxx--0----------222xxxxx------
[ Tab from: http://www.guitartabs.cc/tabs/n/new_found_glory/something_i_call_personality_tab_ver_3.html ]
Chorus 1 Gt 1
e------------------------------------------------
B------------------------------------------------
G----2-2--6-6--------------2222------------------
D-2--2-2--6-6--44444--2222-2222------------------
A-2--0-0--4-4--44444--2222-0000---0-2-2-4-2-0-0--
E-0------------22222--0000------4----------------

Chorus
e------------------------------------------
B------------------------------------------
G----2-2--6-6--------------2222-6666-------
D-2--2-2--6-6--44444--2222-2222-6666-4444--
A-2--0-0--4-4--44444--2222-0000-4444-4444--
E-0------------22222--0000-----------2222--

Chorus 2
e-------------------------------------------
B-------------------------------------------
G----2-2--6-6--------------2222-4xxxxx-7-7--
D-2--2-2--6-6--44444--2222-2222-4xxxxx-7-7--
A-2--0-0--4-4--44444--2222-0000-2xxxxx-5-5--
E-0------------22222--0000------------------

Bridge
e------------part-1---------------|--------------part-2----------------
B---------------------------------|------------------------------------
G---------2xxxxxx-6xxxxxx---------|---------2xxxxxx-2-4xxxxx-4-2xxxxx--
D-2xxxxxx-2xxxxxx-6xxxxxx-4xxxxxx-|-2xxxxxx-2xxxxxx-2-4xxxxx-4-2xxxxx--
A-2xxxxxx-0xxxxxx-4xxxxxx-4xxxxxx-|-2xxxxxx-0xxxxxx-0-2xxxxx-2-0xxxxx--
E-0xxxxxx-----------------2xxxxxx-|-0xxxxxx----------------------------

Ending
e------
B------
G-2----
D-2-2--
A-0-2--
E---0--

Playing Order:
Intro(part1 x1, part2 x3)
Verse x2
Pre-Chorus(part1 x1, part2 x2)
Chorus 1
Chorus 2
Intro(part1 x1, part2 x3)
Verse x2
Chorus 1 x3
Chorus 2 x1
Bridge(part1 x1, part2 x1, part1 x1)
Chorus 1 x3
Chorus 2 x1
Intro(part1 x1, part2 x3)
Ending

Great song!
Comments