New Found Glory - So Many Ways Chords & Tabs

 

So Many Ways Chords & Tabs

New Found Glory Chords & Tabs

Version: 1 Type: Tab 0 ratings
1 star 2 stars 3 stars 4 stars 5 stars
comments

So Many Ways Tab

So Many Ways -  New Found Glory
Tabbed by: Dash M
lilman_86ca@yahoo.com

Intro:
e|-----------------------------------------------------------------|
B|-----------------------------------------------------------------|
G|--7777--777777--7777--777777----4444--444444--4444--444444-------|
D|--7777--777777--7777--777777----4444--444444--4444--444444-------|
A|--5555--555555--5555--555555----2222--222222--2222--222222-------|
E|-----------------------------------------------------------------|

e|---------------------------------------------------------|
B|---------------------------------------------------------|
G|--9999--7777--9999--7777---------------------------------|
D|--9999--7777--9999--7777---------------------------------|
A|--7777--5555--7777--5555---------------------------------|
E|---------------------------------------------------------|

Verse1: x2
e|--------------------------------------------------------------------------|
B|--------------------------------------------------------------------------|
G|--7777--777777--7777--777777----4444--444444--4444--444444----------------|
D|--7777--777777--7777--777777----4444--444444--4444--444444----------------|
A|--5555--555555--5555--555555----2222--222222--2222--222222----------------|
E|--------------------------------------------------------------------------|

e|---------------------------------------------------------|
B|---------------------------------------------------------|
G|--9999--7777--9999--7777---------------------------------|
D|--9999--7777--9999--7777---------------------------------|
A|--7777--5555--7777--5555---------------------------------|
E|---------------------------------------------------------|

Pre chorus: x2
e|--------------------------------------------------------|
B|--------------------------------------------------------|
G|--777-4-4-----------7-4---------------------------------|
D|--777-4-4-444-5-5---7-4-444-5-5-------------------------|
A|--555-2-2-444-5-5---5-2-444-5-5-------------------------|
E|----------222-3-3-------222-3-3-------------------------|

Chorus:
e|---------------------------------------------------------------|
B|---------------------------------------------------------------|
G|--7777----------------------7777-------------------------------|
D|--7777--7777--4444--5555----7777--7777--5555-5555--------------|
A|--5555--7777--4444--5555----5555--7777--5555-5555--------------|
E|--------5555--2222--3333--------5555--3333-3333----------------|

e|-----------------------------------------------------------------------|
B|-----------------------------------------------------------------------|
G|--7777----------------------7777------------------------7--------------|
D|--7777--7777--4444--5555----7777--7777--5555-5555--7777-7--------------|
A|--5555--7777--4444--5555----5555--7777--5555-5555--7777-5--------------|
E|----------5555--2222--3333--------5555--3333-3333--5555----------------|
[ Tab from: http://www.guitartabs.cc/tabs/n/new_found_glory/so_many_ways_tab.html ]
Verse2:
e|----------------------------------------------------------------|
B|----------------------------------------------------------------|
G|--4444--444444--4444--444444------------------------------------|
D|--4444--444444--4444--444444------------------------------------|
A|--2222--222222--2222--222222------------------------------------|
E|----------------------------------------------------------------|

e|---------------------------------------------------------|
B|---------------------------------------------------------|
G|--9999--7777--9999--7777---------------------------------|
D|--9999--7777--9999--7777---------------------------------|
A|--7777--5555--7777--5555---------------------------------|
E|---------------------------------------------------------|

e|--------------------------------------------------------------------------|
B|--------------------------------------------------------------------------|
G|--7777--777777--7777--777777----4444--444444--4444--444444----------------|
D|--7777--777777--7777--777777----4444--444444--4444--444444----------------|
A|--5555--555555--5555--555555----2222--222222--2222--222222----------------|
E|--------------------------------------------------------------------------|

e|---------------------------------------------------------|
B|---------------------------------------------------------|
G|--9999--7777--9999--7777---------------------------------|
D|--9999--7777--9999--7777---------------------------------|
A|--7777--5555--7777--5555---------------------------------|
E|---------------------------------------------------------|

Pre chorus
Chorus

Bridge:
e|----------------------------------------------------------------------|
B|----------------------------------------------------------------------|
G|--7777-4444---------------7777-4444-----------------------------------|
D|--7777-4444---4444-5555---7777-4444---4444-5-5555---------------------|
A|--5555-2222---4444-5555---5555-2222---4444-5-5555---------------------|
E|--------------2222-3333---------------2222-3-3333---------------------|

e|---------------------------------------------------------------------------|
B|---------------------------------------------------------------------------|
G|--7-7777--4-4444-------------------7-7777--4-4444--------------------------|
D|--7-7777--4-4444---4-4444-5-5555---7-7777--4-4444---44444444-55555555------|
A|--5-5555--2-2222---4-4444-5-5555---5-5555--2-2222---44444444-55555555------|
E|-------------------2-2222-3-3333--------------------22222222-33333333------|

Chorus x2

Chorus x2

The high part on the first repetition of the chorus is:
e|-----------------------------------------------------------------------------|
B|-----------------------------------------------------------------------------|
G|--111111--9999--111111--12 12 12 12--111111--9999--77777777--99999999--------|
D|--111111--9999--111111--12 12 12 12--111111--9999--77777777--99999999--------|
A|--9-9 99--7777--9 9 9 9-10 10 10 10--9 9 9 9-7777--55555555--77777777--------|
E|-----------------------------------------------------------------------------|
The plucking part at the F#/Gb power chord the first repetition of the chorus goes:
e|----------------------------------------------------------------------|
B|----------------------------------------------------------------------|
G|--0---7---0---7---0---7---0---7---------------------------------------|
D|----7-------7--------7-------7----------------------------------------|
A|----------------------------------------------------------------------|
E|----------------------------------------------------------------------|
Comments