New Found Glory - Singled Out Chords & Tabs

 

Singled Out Chords & Tabs

New Found Glory Chords & Tabs

Version: 4 Type: Tab 0 ratings
1 star 2 stars 3 stars 4 stars 5 stars
comments

Singled Out Tab

   
Title: Singled Out
Artist: New Fond Glory
Album: Sticks & Stones

Instrument: 6 String Guitar

Tabbed by Nick

Tuning: Standard (E A D G B E)

Man this is an awesoem NFG song i cant belive no ones tabed it before me. Well
thanks to a friend for helping me tab this but i know we didnt completely finish
cuz theres a riff in the begining following the keybord thing tht i cant figure
out. well just listen to the song and figure the strumming to. have fun and Rock ON!!! 

Intro/Solo
E|----------------------------------------------------||
B|----------------------------------------------------||
G|----------------------------------------------------||
D|--10-8--8-10-8-10/12-10-8--8-10-8----10-12---10-12--||
A|----------------------------------10-------8--------||
E|----------------------------------------------------||
[ Tab from: http://www.guitartabs.cc/tabs/n/new_found_glory/singled_out_tab_ver_4.html ]
Verse
E|-----------------------------------|-----||
B|-----------------------------------|-----||
G|----------3-3-3-3-5-5-5-5-8-8-8-8--|--8--||
D|--5-5-5-5-3-3-3-3-5-5-5-5-8-8-8-8--|--8--||
A|--5-5-5-5-1-1-1-1-3-3-3-3-6-6-6-6--|--6--||
E|--3-3-3-3--------------------------|--6--||

Chorus
E|-------------------------------------------------------------------||
B|-------------------------------------------------------------------||
G|------------------8-8-8-8-8-8-8-8----------------------------------||
D|--8-8-8-8-8-8-8-8-8-8-8-8-8-8-8-8-5-5-5-5-5-5-5-5-3-3-3-3-3-3-3-3--||
A|--8-8-8-8-8-8-8-8-6-6-6-6-6-6-6-6-5-5-5-5-5-5-5-5-3-3-3-3-3-3-3-3--||
E|--6-6-6-6-6-6-6-6-----------------3-3-3-3-3-3-3-3-1-1-1-1-1-1-1-1--||

Bridge "What will you do when there's no one to fall back on"
E|-----------------------------||
B|-----------------------------||
G|--8-8-8-8-10-10-10-10-10-10--||
D|--8-8-8-8-10-10-10-10-10-10--||
A|--6-6-6-6-8--8--8--8--8--8---||
E|--6-6-6-6-8--8--8--8--8--8---||

I think that's everything, Enjoy!
Comments