New Found Glory - Singled Out Chords & Tabs

 

Singled Out Chords & Tabs

New Found Glory Chords & Tabs

Version: 1 Type: Tab 0 ratings
1 star 2 stars 3 stars 4 stars 5 stars
comments

Singled Out Tab

Tabbed By Alexander Mattias
Artist:NFG
Song:Singled out

Intro:e----------------------------------
      b----------------------------------
      g-5-3-3-5-3-5-7-5-3-3-5-3--5-7-5-7-
      D-------------------------5---3----x2
      A----------------------------------
      E----------------------------------
[ Tab from: http://www.guitartabs.cc/tabs/n/new_found_glory/singled_out_tab.html ]
Intro2:e-1-----------1-3-1-----------------
       b---3-3-1-1---------3-1---3-1---1---
       g-----------3-----------3-----3---3-
       D-----------------------------------
       A-----------------------------------
       E-----------------------------------

Verse:e-------------------------------
      b-------------------------------
      g-------------------------------
      D---------5---8-----------------
      A-5---8---3pm-6pm---------------
      E-3pm-6pm-----------------------

Chorus:e--------------------------------
       b--------------------------------
       g--------------------------------
       D---8----------------------------
       A-8-6-5-3------------------------
       E-6---3-1------------------------

I donno da reste try an figure it out an e-mail me 
at alexmattias@hotmail.com thanx





Comments