New Found Glory - Sincerely Me Chords & Tabs

 

Sincerely Me Chords & Tabs

New Found Glory Chords & Tabs

Version: 1 Type: Tab 0 ratings
1 star 2 stars 3 stars 4 stars 5 stars
comments

Sincerely Me Tab

   
#----------------------------------PLEASE NOTE--------------------------------#
#This file is the author's own work and represents their interpretation of the#
#song. You may only use this file for private study, scholarship, or research.#
#-----------------------------------------------------------------------------#
#-----------------------------------------------------------------------------#

Artist: A New Found Glory
Song: Sincerly Me
Album: New Found Glory
Tabbed by:Joe Lengson
Email address:anti_government@hotmail.com
Tuning:standard e b g d a e

       So sorry so. . .    I never thought you knew. . .        
------------------------------------------------------------------------------
------------------------------------------------------------------------------
----------------------------------------------------5-5-5-5-5-----------------
------5---------------------------------------------5-5-5-5-5-----------------
------5---------------------------------------------3-3-3-3-3-----------------
------3-----------------------------------------------------------------------
                                                                              

     so   can’t   you   see__________
------------------------------------------------------------------------------
---------------------------------------------x4-------------------------------
------------------5-5-5-5-5-5-5-5---------------------------------------------
------5-5---7-7---5-5-5-5-5-5-5-5---------------------------------------------
------5-5---7-7---3-3-3-3-3-3-3-3---------------------------------------------
------3-3---5-5---------------------------------------------------------------
                                                                              

     and I’m as good as dead. . .
------------------------------------------------------------------------------
---------------------------------------------x4-------------------------------
----------------xxx-5-xx-5----------------------------------------------------
------xx-5-xx-4-xxx-5-xx-5----------------------------------------------------
------xx-5-xx-4-xxx-3-xx-3----------------------------------------------------
------xx-3-xx-2---------------------------------------------------------------
                                                                              
       Pause for bass and drum
       So sorry so. . .     I never thought you knew. . .
------------------------------------------------------------------------------
------------------------------------------------------------------------------
----------------------------------------------------5-5-5-5-5-----------------
------5---------------------------------------------5-5-5-5-5-----------------
------5---------------------------------------------3-3-3-3-3-----------------
------3-----------------------------------------------------------------------
                                                                              

     so   can’t   you   see__________
------------------------------------------------------------------------------
----------------------------------------------x4------------------------------
------------------5-5-5-5-5-5-5-5---------------------------------------------
------5-5---7-7---5-5-5-5-5-5-5-5---------------------------------------------
------5-5---7-7---3-3-3-3-3-3-3-3---------------------------------------------
------3-3---5-5---------------------------------------------------------------
                                                                              

FILL 1 ( play behind above after four times)    

-10---------10---------10-----------------------------------------------------
-----8-8-8------8-8-8------8-8-8--13-----12------10------------x2-------------
----7-7-7-7----7-7-7-7----7-7-7-7---12-12---12-12-----------------------------
------------------------------------------------------------------------------
------------------------------------------------------------------------------
------------------------------------------------------------------------------
                                                                              
[ Tab from: http://www.guitartabs.cc/tabs/n/new_found_glory/sincerely_me_tab.html ]
     and I’m as good as dead. . . 
------------------------------------------------------------------------------
--------------------------------------------x4--------------------------------
----------------xxx-5-xx-5----------------------------------------------------
------xx-5-xx-4-xxx-5-xx-5----------------------------------------------------
------xx-5-xx-4-xxx-3-xx-3----------------------------------------------------
------xx-3-xx-2---------------------------------------------------------------
        This    is    all____   I    have____   to    say 
------------------------------------------------------------------------------                     
------------------------------------------------------------------------------
--------------------------------------5xxxxxxxxxxxxxx--------------5----------
------5xxxxxxxxxxxxxx-7xxxxxxxxxxxxxx-5xxxxxxxxxxxxxx-5-5-4--5-5-4-5---x2-----
------5xxxxxxxxxxxxxx-7xxxxxxxxxxxxxx-3xxxxxxxxxxxxxx-5-5-4--5-5-4-3----------
------3xxxxxxxxxxxxxx-5xxxxxxxxxxxxxx-----------------3-3-2--3-3-2------------
                                                                              

FILL 2 (Play behind above during palm muting parts)

------------------------------------------------------------------x3----------
------13-13-13-12-12-12-10-10-8-8-8-8-8-8-8-8---------------------------------
------------------------------------------------------------------------------
------------------------------------------------------------------------------
------------------------------------------------------------------------------
------------------------------------------------------------------------------
                                                                              

INTERLUDE (play along with bass)
------------------------------------------------------------------------------
------------------------------------------------------------------------------
------------------------------------4-----------------------------------------
----------4-5------4-5--------5-4-5---5---------------------------------------
---------------0-0------3-3-3-------------------------------------------------
------3-3---------------------------------------------------------------------
                                                                              


------------------------------------------------------------------------------
------------------5-5-5-5-5-5-5-5---------------------------------------------
------------------5-5-5-5-5-5-5-5---------------------------------------------
------5-5---7-7---3-3-3-3-3-3-3-3---------------------------------------------
------5-5---7-7---------------------------------------------------------------
------3-3---5-5---------------------------------------------------------------
                                                                              

OUTRO 
-10---------10---------10-----------------------------------------------------
-----8-8-8------8-8-8------8-8-8--13-----12------10------------x2-------------
----7-7-7-7----7-7-7-7----7-7-7-7---12-12---12-12-----------------------------
------------------------------------------------------------------------------
------------------------------------------------------------------------------
------------------------------------------------------------------------------
 

Also i added the bass!
bass intro:
---------------------------------------------------------4-0------------------
------------4-5---------4-5----------4-5-----0-0-0-4-5------------------------
------------------0-0----------3-3--------------------------------------------
------3-3---------------------------------------------------------------------


------------------------------------------------------------------------------
-----------4-5----------4-5---------------------------------------------------
------------------0-0----------3-3-3-3-3-3-3-3--------------------------------
-----3-3----------------------------------------------------------------------

Lyrics:Dear your name here....
Its been a long time, very long time
Since I've heard your voice 
And I bet she never thought I was
So sorry so?
I've had a hard time, very hard time
Seeing less of you
I never thought you knew
So can you see you're seeing less of me darling
And you're blind to the fact that my
Heart stopped beating
And I'm as good as dead
Dear I forgot your name again...
Just picking up where I left off
(Oh yeah) This is the part where you leave me
So sorry so?
I've had a hard time, very hard time
Seeing less of you
I never thought you knew
So can you see
You're seeing less of me darling
And you're blind to the fact that my
Heart stopped beating
And I'm as good as dead
This is all I have to say
Comments