New Found Glory - Sincerely Me Chords & Tabs

 

Sincerely Me Chords & Tabs

New Found Glory Chords & Tabs

Version: 2 Type: Bass Tab 0 ratings
1 star 2 stars 3 stars 4 stars 5 stars
comments

Sincerely Me Bass Tab

Artist: A New Found Glory
Song: Sincerely Me
Tabber: James Smeaton (idliketokopafeel@hotmail.com)
                      (smeaton_james@hotmail.com)


There aren’t many bass tabs of this song about so I thought 
I’d give it a crack. I think it’s right, but see what you think 
and e-mail me.

INTRO/VERSES

G---------------------------------------------------4p0
D-----------4-5---------4-5-------------4-4----5-------
A------------------------------3-3-3-------------------
E-----3-3----------5-5---------------------------------   x8

Then…
[ Tab from: http://www.guitartabs.cc/tabs/n/new_found_glory/sincerely_me_btab_ver_2.html ]
CHORUS
      So can you see...
G------------------------------------------------------
D------------------------------------------------------
A------------------------------3-3-3-3-3-3-3-3---------
E-----3-3----------5-5---------------------------------   x4


Then…

Just after chorus…

POST - CHORUS

G-------------------------------------------------------
D-------------------------------------------------------
A------------------------------------------3-3-3-3------
E-----3-3-3-3------1-1-1-------0-0-0-0------------------  x4

OUTRO

G-------------------------------------------------------
D-------------------------------------------------------
A-------------------------------------------------------
E----3-3-3-3-------1-1-1-------0-0-0-0-0-0-0-0----------  x4

Order:

      INTRO       X8
      CHORUS      X4
      POST-CHORUS X4
      INTRO       X4
      CHORUS      X12
      POST-CHORUS X4
      INTRO       X4
      CHORUS      X4
      OUTRO       X4
Comments