New Found Glory - Scraped Knees Chords & Tabs

 

Scraped Knees Chords & Tabs

New Found Glory Chords & Tabs

Version: 1 Type: Bass Tab 0 ratings
1 star 2 stars 3 stars 4 stars 5 stars
comments

Scraped Knees Bass Tab

SCRAPED KNEES - A New Found Glory

This is just the intro and verse
look at the other tabs for the chorus and bridge

^=strum up  *=strum down

G--------------------------------------------
D----4---------4---------4---------47777-----
A--55-----50-55-----70-55-----50-55-----70---
E-----3333------5555------3333---------------
      *^*^      *^*^      *^*^      *^*^
 
This is pretty close 
                              By Inspector Dan
*use a pick*


===


SCRAPED KNEES - A New Found Glory

Tabbed by: Daniel
[ Tab from: http://www.guitartabs.cc/tabs/n/new_found_glory/scraped_knees_btab.html ]
This is my first time using this thing, so it might get messed up.
This song is hard at first, but easy once you get it.
This should be correct, and if not than VERY close to it.
Play this with a pick. Notes with a "^" under them should be up-
stroked to sound right and to get enough speed. During some parts 
of the verse you can knock out the upstrokes and it still sounds good.
Iím really not sure on the chorus/bridge though. Good Luck!

Intro/Verse:
G|----------------------------------------------------------|
D|---4------------4------------4-------------7777-----------|
A|-55-----50----55-----50----55-----50------9----70---------|
E|----3333---------3333---------3333------77----------------|
      ^ ^          ^ ^          ^ ^          ^ ^

Chorus/Bridge:
G|-----------------------------|
D|-----------------------------|
A|--5>-------------------------|
E|------3>---7>---5>-----------|
Comments