New Found Glory - Radio Adelaide Chords & Tabs

 

Radio Adelaide Chords & Tabs

New Found Glory Chords & Tabs

Version: 2 Type: Tab 0 ratings
1 star 2 stars 3 stars 4 stars 5 stars
comments

Radio Adelaide Tab

Band - New Found Glory
Song - Radio Adelaide

Intro:
e|-----------------------------------------------------------------------------------|
B|-----------------------------------------------------------------------------------|
G|---------------------------------9-7-----------------------------------------------|
D|--00-9-7-5-4-5-2-0--00-9-7-5-4-5-9-7--00-9-7-5-4-5-2-0--22222-0-2-4-55555-4-2-4-00-|
A|--00-9-7-5-4-5-2-0--00-9-7-5-4-5-7-5--00-9-7-5-4-5-2-0--22222-0-2-4-55555-4-2-4-00-|
D|--00-9-7-5-4-5-2-0--00-9-7-5-4-5------00-9-7-5-4-5-2-0--22222-0-2-4-55555-4-2-4-00-|
pm  ..                ..                ..                                        ..

Verse 1:
e|---------------------------------------------------------------------|
B|---------------------------------------------------------------------|
G|---------------------------------------------------------------------|
D|-0000--5555--0000--5555--2222--5555--2222--55-5-55-5-----------------|
A|-0000--5555--0000--5555--2222--5555--2222--55-5-55-5-----------------|
D|-0000--5555--0000--5555--2222--5555--2222--55-5-55-5-----------------|
pm                                           ..   ..

e|---------------------------------------------------------------------|
B|---------------------------------------------------------------------|
G|---------------------------------------------------------------------|
D|-0000--5555--0000--5555--2222--5555--2222--55-5-55-5-----------------|
A|-0000--5555--0000--5555--2222--5555--2222--55-5-55-5-----------------|
D|-0000--5555--0000--5555--2222--5555--2222--55-5-55-5-----------------|
pm ....  ....  ....  ....  ....  ....  ....  ..   .. 

Prechorus:
e|------------------------------------|
B|------------------------------------|
G|------------------------------------|
D|-00-000-00-000-0-22-222-55-555------|
A|-00-000-00-000---22-222-55-555------|
D|-00-000-00-000---22-222-55-555------|
pm .. ... .. ...   .. ... .. ..

Chorus:
e|-----------------------------------------------------------------------------------|
B|-----------------------------------------------------------------------------------|
G|---------------------------------9-7-----------------------------------------------|
D|--00-9-7-5-4-5-2-0--00-9-7-5-4-5-9-7--00-9-7-5-4-5-2-0--22222-0-2-4-55555-4-2-4-00-| x2
A|--00-9-7-5-4-5-2-0--00-9-7-5-4-5-7-5--00-9-7-5-4-5-2-0--22222-0-2-4-55555-4-2-4-00-|
D|--00-9-7-5-4-5-2-0--00-9-7-5-4-5------00-9-7-5-4-5-2-0--22222-0-2-4-55555-4-2-4-00-|
pm  ..                ..                ..                                        ..
[ Tab from: http://www.guitartabs.cc/tabs/n/new_found_glory/radio_adelaide_tab_ver_2.html ]
Verse:
e|---------------------------------------------------------------------|
B|---------------------------------------------------------------------|
G|---------------------------------------------------------------------|
D|-0000--5555--0000--5555--2222--5555--2222--55-5-55-5-----------------|
A|-0000--5555--0000--5555--2222--5555--2222--55-5-55-5-----------------|
D|-0000--5555--0000--5555--2222--5555--2222--55-5-55-5-----------------|
pm                                           ..   ..

e|---------------------------------------------------------------------|
B|---------------------------------------------------------------------|
G|---------------------------------------------------------------------|
D|-0000--5555--0000--5555--2222--5555--2222--55-5-55-5-----------------|
A|-0000--5555--0000--5555--2222--5555--2222--55-5-55-5-----------------|
D|-0000--5555--0000--5555--2222--5555--2222--55-5-55-5-----------------|
pm ....  ....  ....  ....  ....  ....  ....  ..   .. 

Prechorus:
e|------------------------------------|
B|------------------------------------|
G|------------------------------------|
D|-00-000-00-000-0-22-222-55-555------|
A|-00-000-00-000---22-222-55-555------|
D|-00-000-00-000---22-222-55-555------|
pm .. ... .. ...   .. ... .. ..

Chorus:
e|-----------------------------------------------------------------------------------|
B|-----------------------------------------------------------------------------------|
G|---------------------------------9-7-----------------------------------------------|
D|--00-9-7-5-4-5-2-0--00-9-7-5-4-5-9-7--00-9-7-5-4-5-2-0--22222-0-2-4-55555-4-2-4-00-| x2
A|--00-9-7-5-4-5-2-0--00-9-7-5-4-5-7-5--00-9-7-5-4-5-2-0--22222-0-2-4-55555-4-2-4-00-|
D|--00-9-7-5-4-5-2-0--00-9-7-5-4-5------00-9-7-5-4-5-2-0--22222-0-2-4-55555-4-2-4-00-|
pm  ..                ..                ..                                        ..

Bridge: (2 - clean, 2 - dist)
|---------------------------------------------------------------------|
|---------------------------------------------------------------------|
|--7-7-7-7-7-7-7-7-7-7-6-6-6-6-6-7-7-7-7-7----------------------------|
|--7-7-7-7-7-7-7-7-7-7-6-6-6-6-6-7-7-7-7-7----------------------------| x4
|--5-5-5-5-5-5-5-5-5-5-4-4-4-4-4-5-5-5-5-5----------------------------|
|---------------------------------------------------------------------|

Chorus:
e|-----------------------------------------------------------------------------------|
B|-----------------------------------------------------------------------------------|
G|---------------------------------9-7-----------------------------------------------|
D|--00-9-7-5-4-5-2-0--00-9-7-5-4-5-9-7--00-9-7-5-4-5-2-0--22222-0-2-4-55555-4-2-4-00-| x3
A|--00-9-7-5-4-5-2-0--00-9-7-5-4-5-7-5--00-9-7-5-4-5-2-0--22222-0-2-4-55555-4-2-4-00-|
D|--00-9-7-5-4-5-2-0--00-9-7-5-4-5------00-9-7-5-4-5-2-0--22222-0-2-4-55555-4-2-4-00-|
pm  ..                ..                ..                                        ..

Ending:
e|------|
B|------|
G|------|
D|--00--|
A|--00--|
D|--00--|
Comments