New Found Glory - Radio Adelaide Chords & Tabs

 

Radio Adelaide Chords & Tabs

New Found Glory Chords & Tabs

Version: 1 Type: Tab 0 ratings
1 star 2 stars 3 stars 4 stars 5 stars
comments

Radio Adelaide Tab

Artist: New found glory
Album: Catalyst
Track: Radio Adelaide

I was looking through the NFG tabs and I noticed that there was no tab for this 
song! So here it is in full glory, sorry for any mistakes but I'm sure it's correct.

Intro/Chorus

E ------------------------------------------------------------|
B ------------------------------------------------------------|
G ------------------------------------------------------------|
D --0-0-9-7-5-4-5-2-0--0-0-9-7-5-4-5-2-0--0-0-9-7-5-4-5-2-0---|
A --0-0-9-7-5-4-5-2-0--0-0-9-7-5-4-5-2-0--0-0-9-7-5-4-5-2-0---|
D --0-0-9-7-5-4-5-2-0--0-0-9-7-5-4-5-2-0--0-0-9-7-5-4-5-2-0---|

E -------------------------------------------|
B -------------------------------------------|
G -------------------------------------------|
D --2-2-2-2-2-2-0-2-5-5-5-5-5-5-4-2-4-0-0----|
A --2-2-2-2-2-2-0-2-5-5-5-5-5-5-4-2-4-0-0----|
D --2-2-2-2-2-2-0-2-5-5-5-5-5-5-4-2-4-0-0----|


Verse
[ Tab from: http://www.guitartabs.cc/tabs/n/new_found_glory/radio_adelaide_tab.html ]
E --------------------------------------------------------|
B --------------------------------------------------------|
G --------------------------------------------------------|
D --0-0--0-5-5---0-0--0-5-5---2-2--2-5-5---2-2--2-5-5-----|
A --0-0--0-5-5---0-0--0-5-5---2-2--2-5-5---2-2--2-5-5-----|
D --0-0--0-5-5---0-0--0-5-5---2-2--2-5-5---2-2--2-5-5-----|

Repeat pattern once but palm muted


Pre-Chorus

E -------------------------------------------|
B -------------------------------------------|
G -------------------------------------------|
D --0-0--0-0--0-0--0-0-x-2-2--2-2--5-5-5-~---|
A --0-0--0-0--0-0--0-0-x-2-2--2-2--5-5-5-~---|
D --0-0--0-0--0-0--0-0-x-2-2--2-2--5-5-5-~---|


Bridge

E ---------------------------------------------------------------------|
B ---------------------------------------------------------------------|
G ---------------------------------------------------------------------|
D --7-7-7-7-7-7-7-7-7-7-7-7-7-7-7--7-7-7-7-7-7-7---5-5-5-5-5-5-5-5-----|
A --5-5-5-5-5-5-5-5-5-5-5-5-5-5-5--4-4-4-4-4-4-4---5-5-5-5-5-5-5-5-----|
D -------------------------------------------------5-5-5-5-5-5-5-5-----|

Throw in a slide after the second time and that's it!!!
Comments