New Found Glory - Over The Head Below The Knees Chords & Tabs

 

Over The Head Below The Knees Chords & Tabs

New Found Glory Chords & Tabs

Version: 3 Type: Tab 0 ratings
1 star 2 stars 3 stars 4 stars 5 stars
comments

Over The Head Below The Knees Tab

   
Song: Over the Head, Below the Knees
Artist: New Found Glory
Album: Catalyst

Okay, I looked over the other ones and thought I would make my own. So here it is.
If you have any questions or corrections, my email is SaintJimmy10@yahoo.com

Guitar 1(lead)(D,A,D,G,B,E)
Guitar 2(rhythm)(D,A,D,G,B,E)

Intro pt. 1(guitar 2)
E---------------------------------------|
B---------------------------------------|
G---------5-5---------------------------|
D-----5-5-5-5---------------------------|
A---5-5-5-5-5---------------------------|
D-5-5-5-5-5-5---------------------------|
h . . . . . .

Intro pt. 2(guitar 2)
E------------------------------------------------------------|repeat x2
B------------------------------------------------------------|
G------------------------------------------------------------|
D------------------------------------------------------------|
A--555-555-111-111-555-555-111-111---------------------------|
D--555-555-111-111-555-555-111-111---------------------------|
pm ... ... ... ... ... ... ... ...

Intro pt. 3(guitar 2)
E------------------------------------------------------------|
B------------------------------------------------------------|
G------------------------------------------------------------|
D------------------------------------------------------------|
A-0-010-010~~~~----------------------------------------------|
D-0-010-010~~~~----------------------------------------------|

Pre-verse(guitar 1)             x3
E-------------------------------|----------------------------|
B-------------------------------|----------------------------|
G-12-12-12--7-7-7--8-8-8--7-7-7-|-12-12-12-7-6-5-3~~---------|
D--x--x--x--x-x-x--x-x-x--x-x-x-|--x--x--x-x-x-x-x-----------|
A-10-10-10--5-5-5--6-6-6--5-5-5-|-10-10-10-5-4-3-1~~---------|
D-------------------------------|----------------------------|

Pre-verse(guitar 2)  x3
E--------------------|---------------------------------------|
B--------------------|---------------------------------------|
G--------------------|---------------------------------------|
D--555-000-111-000---|-555-000-1~~---------------------------|
A--555-000-111-000---|-555-000-1~~---------------------------|
D--555-000-111-000---|-555-000-1~~---------------------------|
[ Tab from: http://www.guitartabs.cc/tabs/n/new_found_glory/over_the_head_below_the_knees_tab_ver_3.html ]
Verse(guitar 2)               x4       (both guitars)         x4
E-----------------------------|-------------------------------|
B-----------------------------|-------------------------------|
G-----------------------------|-------------------------------|
D-555555-000000-555555-000000-|-555555-000000-555555-000000---|
A-555555-000000-555555-000000-|-555555-000000-555555-000000---|
D-555555-000000-555555-000000-|-555555-000000-555555-000000---|
pm...... ...... ...... ......

Pre-Chorus(guitar 2)
E------------------------------------------------------------|
B------------------------------------------------------------|
G------------------------------------------------------------|
D-0-010-010~~~-----------------------------------------------|
A-0-010-010~~~-----------------------------------------------|
D-0-010-010~~~-----------------------------------------------|

Chorus(both guitars)
E------------------------------------------------------------|x2
B------------------------------------------------------------|
G------------------------------------------------------------|
D-555-000-111-000-555-000-111-000----------------------------|
A-555-000-111-000-555-000-111-000----------------------------|
D-555-000-111-000-555-000-111-000----------------------------|

Second Measure of Chorus(guitar 2)
E------------------------------------------------------------|
B------------------------------------------------------------|
G-17-16-14~~~------------------------------------------------|
D--x--x--x~~~------------------------------------------------|
A-15-14-12~~~------------------------------------------------|
D------------------------------------------------------------|

Still workin on the Bridge...sorry.

Outro
E------------------------------------------------------------|
B------------------------------------------------------------|
G------------------------------------------------------------|
D------------------------------------------------------------|
A--555555-000000-555555-0~~~~~-------------------------------|
D--555555-000000-555555-0~~~~~-------------------------------|
pm ...... ...... ......

Order:
Intro Pt. 1 x1
Intro Pt. 2 x2
Intro Pt. 3 x1
Pre-verse x1
Verse x1
Pre-chorus x1
Chorus x2
Verse x1
Pre-chorus x1
Bridge x1
Chorus x4
Outro x1

There ya go. That's all of it. I'll get the Bridge up as soon as possible. Please rate. Thanks.
Comments