New Found Glory - Never Ending Story Chords & Tabs

 

Never Ending Story Chords & Tabs

New Found Glory Chords & Tabs

Version: 7 Type: Tab 0 ratings
1 star 2 stars 3 stars 4 stars 5 stars
comments

Never Ending Story Tab

   
Gtr I (E A D G B E) - 'Rhythm'
Gtr II (E A D G B E) - 'Lead'


   Intro
    Q=178
    C5                                  F5      A5         G5
   4/4
    Gtr I
    E E E E E E E E   E E E E E E E E   +E  q   Q  q   E   +E  E E E E E E E
||------------------|-----------------|------------------|--------------------||
||o-----------------|-----------------|------------------|-------------------o||
||--5-5-5-5-5-5-5-5-|-5-5-5-5-5-5-5---|------------------|--------------------||
||--5-5-5-5-5-5-5-5-|-5-5-5-5-5-5-5-3-|-(3)-3---7--7---5-|-(5)-5-5-5-5-5-5-5--||
||o-3-3-3-3-3-3-3-3-|-3-3-3-3-3-3-3-3-|-(3)-3---7--7---5-|-(5)-5-5-5-5-5-5-5-o||
||------------------|---------------1-|-(1)-1---5--5---3-|-(3)-3-3-3-3-3-3-3--||
|
|   Gtr II
|   E E E E E E E E   E E E E E E E E   +E  E E Q  E E E   +E  E E Q   E E E
||------------------|-----------------|------------------|--------------------||
||o-----------------|-----------------|------------------|-------------------o||
||--5-5-5-5-5-5-5-4-|-4-5-5-5-5-5-5-7-|-(7)-7-9-5--5-5-9-|-(9)-9-9-7---7-7-7--||
||------------------|-----------------|------------------|--------------------||
||o-3-3-3-3-3-3-3-2-|-2-3-3-3-3-3-3-5-|-(5)-5-7-3--3-3-7-|-(7)-7-7-5---5-5-5-o||
||------------------|-----------------|------------------|--------------------||


 Verse 1
  C5                G5                  F5                  A5        G5
  PM|     PM|   PM------|     PM|   PM------|     PM|        PM-|     PM|
  E E E E E E E E    E  E E E E E E E    E  E E E E E E E    E  E E E E E E E
|-----------------|-------------------|-------------------|-------------------|
|-----------------|-------------------|-------------------|-------------------|
|-5-5-5-5-5-5-5---|-------------------|-------------------|-------------------|
|-5-5-5-5-5-5-5---|--5--5-5-5-5-5-5---|--3--3-3-3-3-3-3-3-|--7--7-7-7-5-5-5-5-|
|-3-3-3-3-3-3-3-0-|--5--5-5-5-5-5-5-0-|--3--3-3-3-3-3-3-3-|--7--7-7-7-5-5-5-5-|
|---------------0-|--3--3-3-3-3-3-3-0-|--1--1-1-1-1-1-1-1-|--5--5-5-5-3-3-3-3-|
|
| >
| W                 +W                  +W                  +W
|-----------------|-------------------|-------------------|-------------------|
|-----------------|-------------------|-------------------|-------------------|
|-5---------------|-(5)---------------|-(5)---------------|-(5)---------------|
|-----------------|-------------------|-------------------|-------------------|
|-3---------------|-(3)---------------|-(3)---------------|-(3)---------------|
|-----------------|-------------------|-------------------|-------------------|


  C5                G5                F5                A5      G5
  Gtr I
  PM|     PM|   PM----|     PM|   PM----|     PM|       PM|     PM----|
  E E E E E E E E   E E E E E E E E   E E E E E E E E   E E E E E E E E
|-----------------|-----------------|-----------------|-----------------|
|-----------------|-----------------|-----------------|-----------------|
|-5-5-5-5-5-5-5---|-----------------|-----------------|-----------------|
|-5-5-5-5-5-5-5---|-5-5-5-5-5-5-5---|-3-3-3-3-3-3-3-3-|-7-7-7-7-5-5-5-5-|
|-3-3-3-3-3-3-3-0-|-5-5-5-5-5-5-5-0-|-3-3-3-3-3-3-3-3-|-7-7-7-7-5-5-5-5-|
|---------------0-|-3-3-3-3-3-3-3-0-|-1-1-1-1-1-1-1-1-|-5-5-5-5-3-3-3-3-|


 Pre-Chorus
  $
  Eb5
  Gtr I
  E E E E E E E E   E E E E E E E E
|-----------------|-----------------|
|-----------------|-----------------|
|-8-8-8-8-8-8-8-8-|-8-8-8-8-8-8-8-8-|
|-8-8-8-8-8-8-8-8-|-8-8-8-8-8-8-8-8-|
|-6-6-6-6-6-6-6-6-|-6-6-6-6-6-6-6-6-|
|-----------------|-----------------|
|
| Gtr II
| E E E E E E E E   E E E E E E E E
|-----------------|-----------------|
|-----------------|-----------------|
|-8-8-8-8-8-8-8-8-|-8-8-8-8-8-8-8-8-|
|-----------------|-----------------|
|-6-6-6-6-6-6-6-6-|-6-6-6-6-6-6-6-6-|
|-----------------|-----------------|


  Ab5               Bb5
  E E E E E E E E    E  E  E  E  E  E  E  E
|-----------------|--------------------------|
|-----------------|--------------------------|
|-----------------|--------------------------|
|-6-6-6-6-6-6-6-6-|--8--8--8--8--8--8--8--8--|
|-6-6-6-6-6-6-6-6-|--8--8--8--8--8--8--8--8--|
|-4-4-4-4-4-4-4-4-|--6--6--6--6--6--6--6--6--|
|
| E E E E E E E E    E  E  E  E  E  E  E  E
|-----------------|--------------------------|
|-9-9-9-9-9-9-9-9-|-11-11-11-11-11-11-11-11--|
|-----------------|--------------------------|
|-6-6-6-6-6-6-6-6-|--8--8--8--8--8--8--8--8--|
|-----------------|--------------------------|
|-----------------|--------------------------|


  Eb5               C5
  E E E E E E E E   E E E E E E E E
|-----------------|-----------------|
|-----------------|-----------------|
|-8-8-8-8-8-8-8-8-|-5-5-5-5-5-5-5-5-|
|-8-8-8-8-8-8-8-8-|-5-5-5-5-5-5-5-5-|
|-6-6-6-6-6-6-6-6-|-3-3-3-3-3-3-3-3-|
|-----------------|-----------------|
|
| E E E E E E E E   E E E E E E E E
|-----------------|-----------------|
|-----------------|-8-8-8-8-8-8-8-8-|
|-8-8-8-8-8-8-8-8-|-----------------|
|-----------------|-5-5-5-5-5-5-5-5-|
|-6-6-6-6-6-6-6-6-|-----------------|
|-----------------|-----------------|


  Ab5               Bb5
  E E E E E E E E    E  E  E  E  E  E  E  E
|-----------------|--------------------------|
|-----------------|--------------------------|
|-----------------|--------------------------|
|-6-6-6-6-6-6-6-6-|--8--8--8--8--8--8--8--8--|
|-6-6-6-6-6-6-6-6-|--8--8--8--8--8--8--8--8--|
|-4-4-4-4-4-4-4-4-|--6--6--6--6--6--6--6--6--|
|
| E E E E E E E E    E  E  E  E  E  E  E  E
|-----------------|--------------------------|
|-9-9-9-9-9-9-9-9-|-11-11-11-11-11-11-11-11--|
|-----------------|--------------------------|
|-6-6-6-6-6-6-6-6-|--8--8--8--8--8--8--8--8--|
|-----------------|--------------------------|
|-----------------|--------------------------|


 Chorus
  C5                G5
  E E E E E E E E   E E E E E  E E  E
|-----------------|-------------------|
|-----------------|-------------------|
|-5-5-5-5-5-5-5---|-------------------|
|-5-5-5-5-5-5-5---|-5-5-5-5-5--5-5--3-|
|-3-3-3-3-3-3-3-0-|-5-5-5-5-5--5-5--3-|
|---------------0-|-3-3-3-3-3--3-3--1-|
|
| E E E E E E E E   E E E E E  E E  E
|-----------------|-------------------|
|-----------------|-------------------|
|-5-5-5-5-5-5-5-5-|-5-5-5-5-5-10-9-10-|
|-----------------|-------------------|
|-3-3-3-3-3-3-3-3-|-3-3-3-3-3--8-7--8-|
|-----------------|-------------------|


  F5       A5            G5
   +E  q   Q     q   E   +E  E E E E E E E
|----------------------|--------------------|
|----------------------|--------------------|
|----------------------|--------------------|
|--(3)-3---7-----7---5-|-(5)-5-5-5-5-5-5-5--|
|--(3)-3---7-----7---5-|-(5)-5-5-5-5-5-5-5--|
|--(1)-1---5-----5---3-|-(3)-3-3-3-3-3-3-3--|
|
|  +E  E E E +E  E E E   +W
|----------------------|--------------------|
|----------------------|--------------------|
|-(10)-9-7-9-(9)-7-5-7-|-(7)----------------|
|----------------------|--------------------|
|--(8)-7-5-7-(7)-5-3-5-|-(5)----------------|
|----------------------|--------------------|


  C5
  E E E E E E E E   E E E E E  E E  E
|-----------------|-------------------|
|-----------------|-------------------|
|-5-5-5-5-5-5-5---|-------------------|
|-5-5-5-5-5-5-5---|-5-5-5-5-5--5-5--3-|
|-3-3-3-3-3-3-3-0-|-5-5-5-5-5--5-5--3-|
|---------------0-|-3-3-3-3-3--3-3--1-|
|
| E E E E E E E E   E E E E E  E E  E
|-----------------|-------------------|
|-----------------|-------------------|
|-5-5-5-5-5-5-5-5-|-5-5-5-5-5-10-9-10-|
|-----------------|-------------------|
|-3-3-3-3-3-3-3-3-|-3-3-3-3-3--8-7--8-|
|-----------------|-------------------|


                                  To Coda
  F5       A5            G5
   +E  q   Q     q   E   +E  E E E E E E E
|----------------------|---------------------|
|----------------------|---------------------|
|----------------------|---------------------|
|--(3)-3---7-----7---5-|-(5)-5-5-5-5-5-5-5---|
|--(3)-3---7-----7---5-|-(5)-5-5-5-5-5-5-5---|
|--(1)-1---5-----5---3-|-(3)-3-3-3-3-3-3-3---|
|
|  +E  E E E +E  E E E   +W
|----------------------|---------------------|
|----------------------|---------------------|
|-(10)-9-7-9-(9)-7-5-7-|-(7)-----------------|
|----------------------|---------------------|
|--(8)-7-5-7-(7)-5-3-5-|-(5)-----------------|
|----------------------|---------------------|

[ Tab from: http://www.guitartabs.cc/tabs/n/new_found_glory/never_ending_story_tab_ver_7.html ]
 Interlude
  C5                G5                F5                A5      G5
  E E E E E E E E   E E E E E E E E   E E E E E E E E   E E E E E E E E
|-----------------|-----------------|-----------------|-------------------|
|-----------------|-----------------|-----------------|-------------------|
|-5-5---5-5-5---5-|-----------------|-----------------|-------------------|
|-5-5---5-5-5---5-|-5-5---5-5-5---5-|-3-3---3-3-3---3-|-7-7---7-5-5---5---|
|-3-3---3-3-3---3-|-5-5---5-5-5---5-|-3-3---3-3-3---3-|-7-7---7-5-5---5---|
|-----------------|-3-3---3-3-3---3-|-1-1---1-1-1---1-|-5-5---5-3-3---3---|
|
| E E E E E E E E   E E E E E E E E   E E E E E E E E   E E E E E E E E
|-----------------|-----------------|-----------------|-------------------|
|-----------------|-----------------|-----------------|-------------------|
|-5-5---5-5-5---5-|-5-5---5-5-5---5-|-5-5---5-5-5---5-|-5-5---5-5-5---5---|
|-5-5---5-5-5---5-|-5-5---5-5-5---5-|-5-5---5-5-5---5-|-5-5---5-5-5---5---|
|-3-3---3-3-3---3-|-3-3---3-3-3---3-|-3-3---3-3-3---3-|-3-3---3-3-3---3---|
|-----------------|-----------------|-----------------|-------------------|


 Verse 2
  C5                G5                F5                A5      G5
  E E E E E E E E   E E E E E E E E   E E E E E E E E   E E E E E E E E
|-----------------|-----------------|-----------------|-------------------|
|-----------------|-----------------|-----------------|-------------------|
|-5-5---5-5-5---5-|-----------------|-----------------|-------------------|
|-5-5---5-5-5---5-|-5-5---5-5-5---5-|-3-3---3-3-3---3-|-7-7---7-5-5---5---|
|-3-3---3-3-3---3-|-5-5---5-5-5---5-|-3-3---3-3-3---3-|-7-7---7-5-5---5---|
|-----------------|-3-3---3-3-3---3-|-1-1---1-1-1---1-|-5-5---5-3-3---3---|
|
| E E E E E E E E   E E E E E E E E   E E E E E E E E   E E E E E E E E
|-----------------|-----------------|-----------------|-------------------|
|-----------------|-----------------|-----------------|-------------------|
|-5-5---5-5-5---5-|-5-5---5-5-5---5-|-5-5---5-5-5---5-|-5-5---5-5-5---5---|
|-5-5---5-5-5---5-|-5-5---5-5-5---5-|-5-5---5-5-5---5-|-5-5---5-5-5---5---|
|-3-3---3-3-3---3-|-3-3---3-3-3---3-|-3-3---3-3-3---3-|-3-3---3-3-3---3---|
|-----------------|-----------------|-----------------|-------------------|


                                                          D.S. al Coda
  C5                G5                F5                A5      G5
  E E E E E E E E   E E E E E E E E   E E E E E E E E   E E E E E E E E
|-----------------|-----------------|-----------------|-------------------|
|-----------------|-----------------|-----------------|-------------------|
|-5-5---5-5-5---5-|-----------------|-----------------|-------------------|
|-5-5---5-5-5---5-|-5-5---5-5-5---5-|-3-3---3-3-3---3-|-7-7---7-5-5---5---|
|-3-3---3-3-3---3-|-5-5---5-5-5---5-|-3-3---3-3-3---3-|-7-7---7-5-5---5---|
|-----------------|-3-3---3-3-3---3-|-1-1---1-1-1---1-|-5-5---5-3-3---3---|
|
| E E E E E E E E   E E E E E E E E   E E E E E E E E   E E E E E E E E
|-----------------|-----------------|-----------------|-------------------|
|-----------------|-----------------|-----------------|-------------------|
|-5-5---5-5-5---5-|-5-5---5-5-5---5-|-5-5---5-5-5---5-|-5-5---5-5-5---5---|
|-5-5---5-5-5---5-|-5-5---5-5-5---5-|-5-5---5-5-5---5-|-5-5---5-5-5---5---|
|-3-3---3-3-3---3-|-3-3---3-3-3---3-|-3-3---3-3-3---3-|-3-3---3-3-3---3---|
|-----------------|-----------------|-----------------|-------------------|


   Post-Chorus
    &
    Eb5                    Bb5
    E E E  E  E  E  E  E    E  E  E  E  E E E E
||-----------------------|----------------------|
||o----------------------|----------------------|
||--8-8-8--8--8--8--8----|----------------------|
||--8-8-8--8--8--8--8--8-|--8--8--8--8--8-8-8-6-|
||o-6-6-6--6--6--6--6--8-|--8--8--8--8--8-8-8-6-|
||---------------------6-|--6--6--6--6--6-6-6-4-|
|
|   E E E  E  E  E  E  E    E  E  E  E  E E E E
||-----------------------|----------------------|
||o-------11-11-11-11-11-|-11-11-11-11-11-9-8-9-|
||--8-8-8----------------|----------------------|
||---------8--8--8--8--8-|--8--8--8--8--8-6-5-6-|
||o-6-6-6----------------|----------------------|
||-----------------------|----------------------|


  Ab5     C5               Bb5
  +E  q    Q      q    E    +E  E E E E E E E
|------------------------|----------------------||
|------------------------|---------------------o||
|------------------------|----------------------||
|-(6)-6---10-----10----8-|--(8)-8-8-8-8-8-8-8---||
|-(6)-6---10-----10----8-|--(8)-8-8-8-8-8-8-8--o||
|-(4)-4----8------8----6-|--(6)-6-6-6-6-6-6-6---||
|
| +E  E E  E +E   E E  E    +W
|------------------------|----------------------||
|-(9)-8-6--8-(8)---------|---------------------o||
|----------------10-8-10-|-(10)-----------------||
|-(6)-5-3--5-(5)---------|----------------------||
|-----------------8-6--8-|--(8)----------------o||
|------------------------|----------------------||


  G5
  Gtr II
  E E E E E E E E   E E E E E E E E
|-----------------|-----------------|
|-8-8---8-8-8---8-|-8-8---8-8-8---8-|
|-----------------|-----------------|
|-5-5---5-5-5---5-|-5-5---5-5-5---5-|
|-----------------|-----------------|
|-----------------|-----------------|


   Verse 3
    C5                G5                F5                A5      G5
    Gtr I
    E E E E E E E E   E E E E E E E E   E E E E E E E E   E E E E E E E E
||------------------|-----------------|-----------------|-------------------||
||o-----------------|-----------------|-----------------|------------------o||
||--5-5---5-5-5---5-|-----------------|-----------------|-------------------||
||--5-5---5-5-5---5-|-5-5---5-5-5---5-|-3-3---3-3-3---3-|-7-7---7-5-5---5---||
||o-3-3---3-3-3---3-|-5-5---5-5-5---5-|-3-3---3-3-3---3-|-7-7---7-5-5---5--o||
||------------------|-3-3---3-3-3---3-|-1-1---1-1-1---1-|-5-5---5-3-3---3---||
|
|   Gtr II
|   E E E E E E E E   E E E E E E E E   E E E E E E E E   E E E E E E E E
||------------------|-----------------|-----------------|-------------------||
||o-----------------|-----------------|-----------------|------------------o||
||--5-5---5-5-5---5-|-5-5---5-5-5---5-|-5-5---5-5-5---5-|-5-5---5-5-5---5---||
||--5-5---5-5-5---5-|-5-5---5-5-5---5-|-5-5---5-5-5---5-|-5-5---5-5-5---5---||
||o-3-3---3-3-3---3-|-3-3---3-3-3---3-|-3-3---3-3-3---3-|-3-3---3-3-3---3--o||
||------------------|-----------------|-----------------|-------------------||


 Pre-Chorus
  Eb5
  E E E E E E E E   E E E E E E E E
|-----------------|-----------------|
|-----------------|-----------------|
|-8-8-8-8-8-8-8-8-|-8-8-8-8-8-8-8-8-|
|-8-8-8-8-8-8-8-8-|-8-8-8-8-8-8-8-8-|
|-6-6-6-6-6-6-6-6-|-6-6-6-6-6-6-6-6-|
|-----------------|-----------------|
|
| E E E E E E E E   E E E E E E E E
|-----------------|-----------------|
|-----------------|-----------------|
|-8-8-8-8-8-8-8-8-|-8-8-8-8-8-8-8-8-|
|-----------------|-----------------|
|-6-6-6-6-6-6-6-6-|-6-6-6-6-6-6-6-6-|
|-----------------|-----------------|


  Ab5               Bb5
  E E E E E E E E    E  E  E  E  E  E  E  E
|-----------------|---------------------------|
|-----------------|---------------------------|
|-----------------|---------------------------|
|-6-6-6-6-6-6-6-6-|--8--8--8--8--8--8--8--8---|
|-6-6-6-6-6-6-6-6-|--8--8--8--8--8--8--8--8---|
|-4-4-4-4-4-4-4-4-|--6--6--6--6--6--6--6--6---|
|
| E E E E E E E E    E  E  E  E  E  E  E  E
|-----------------|---------------------------|
|-9-9-9-9-9-9-9-9-|-11-11-11-11-11-11-11-11---|
|-----------------|---------------------------|
|-6-6-6-6-6-6-6-6-|--8--8--8--8--8--8--8--8---|
|-----------------|---------------------------|
|-----------------|---------------------------|


  Eb5               C5                Ab5               Bb5           N.C.
  E E E E E E E E   E E E E E E E E   E E E E E E E E    q  H.        W
|-----------------|-----------------|-----------------|-------------|------|
|-----------------|-----------------|-----------------|-------------|------|
|-8-8-8-8-8-8-8-8-|-5-5-5-5-5-5-5-5-|-----------------|-------------|------|
|-8-8-8-8-8-8-8-8-|-5-5-5-5-5-5-5-5-|-6-6-6-6-6-6-6-6-|--8----------|------|
|-6-6-6-6-6-6-6-6-|-3-3-3-3-3-3-3-3-|-6-6-6-6-6-6-6-6-|--8----------|------|
|-----------------|-----------------|-4-4-4-4-4-4-4-4-|--6----------|------|
|
| E E E E E E E E   E E E E E E E E   E E E E E E E E    q  H.        W
|-----------------|-----------------|-----------------|-------------|------|
|-----------------|-8-8-8-8-8-8-8-8-|-9-9-9-9-9-9-9-9-|-11----------|------|
|-8-8-8-8-8-8-8-8-|-----------------|-----------------|-------------|------|
|-----------------|-5-5-5-5-5-5-5-5-|-6-6-6-6-6-6-6-6-|--8----------|------|
|-6-6-6-6-6-6-6-6-|-----------------|-----------------|-------------|------|
|-----------------|-----------------|-----------------|-------------|------|


    C5                G5                F5     A5        G5
    Gtrs I, II
    E E E E E E E E   E E E E E E E E   +E  q  Q  q  E   +E  E E E E E E E   3x
||------------------|-----------------|----------------|---------------------||
||o-----------------|-----------------|----------------|--------------------o||
||--5-5-5-5-5-5-5---|-----------------|----------------|---------------------||
||--5-5-5-5-5-5-5---|-5-5-5-5-5-5-5-3-|-(3)-3--7--7--5-|-(5)-5-5-5-5-5-5-5---||
||o-3-3-3-3-3-3-3-0-|-5-5-5-5-5-5-5-3-|-(3)-3--7--7--5-|-(5)-5-5-5-5-5-5-5--o||
||----------------0-|-3-3-3-3-3-3-3-1-|-(1)-1--5--5--3-|-(3)-3-3-3-3-3-3-3---||


  C5                G5                F5     A5        G5
  E E E E E E E E   E E E E E E E E   +E  q  Q  q  E   +H     +Q.   E
|-----------------|-----------------|----------------|------------------|
|-----------------|-----------------|----------------|------------------|
|-5-5-5-5-5-5-5---|-----------------|----------------|------------------|
|-5-5-5-5-5-5-5---|-5-5-5-5-5-5-5-3-|-(3)-3--7--7--5-|-(5)----(5)---3---|
|-3-3-3-3-3-3-3-0-|-5-5-5-5-5-5-5-3-|-(3)-3--7--7--5-|-(5)----(5)---3---|
|---------------0-|-3-3-3-3-3-3-3-1-|-(1)-1--5--5--3-|-(3)----(3)---1---|


  F5     A5        G5           C5           N.C.
  +E  q  Q  q  E   +W           Q  H.        W
|----------------|------------|------------|------*|
|----------------|------------|------------|------*|
|----------------|------------|-5----------|------*|
|-(3)-3--7--7--5-|-(5)--------|-5----------|------*|
|-(3)-3--7--7--5-|-(5)--------|-3----------|------*|
|-(1)-1--5--5--3-|-(3)--------|------------|------*|
Comments