New Found Glory - Never Ending Story Chords & Tabs

 

Never Ending Story Chords & Tabs

New Found Glory Chords & Tabs

Version: 1 Type: Tab 0 ratings
1 star 2 stars 3 stars 4 stars 5 stars
comments

Never Ending Story Tab

Artist:A New Found Glory
Song: Never Ending Story Theme Song
Cd:From your screen to the stereo
Tabbed By: Zach 

Buy the album and learn the songs it will impress all your friends!

Intro 
-------------------------------- 
-------------------------------- 
55555555-4/555555-5/77-55-99-777 
55555555-4/555555-5/77-55-99-777 
33333333-2/333333-3/55-33-77-555 
-------------------------------- 

Verse (Palm Muted) 
---------------------------------- 
---------------------------------- 
55555555-------------------------- 
55555555--55555555-3333333377-55-- 
333333330-5555555503333333377-55-- 
--------0-3333333301111111155-33-- 

Pre-Courus 
------------------------------ 
------------------------------ 
88888888---------------------- 
88888888666688888------------- 
66666666666688888------------- 
--------444466666------------- 

------------------------------ 
------------------------------ 
88888555555------------------- 
888883333336666688888888------ 
666663333336666688888888------ 
-----------4444466666666------ 
[ Tab from: http://www.guitartabs.cc/tabs/n/new_found_glory/never_ending_story_tab.html ]
Courus 
Gtr1 
---------------------------------- 
---------------------------------- 
55555555-------------------------- 
55555555--55555555-33-x-77-x-55-- 
333333330-55555555033-x-77-x-55-- 
--------0-33333333011-x-55-x-33-- 
Gtr 2 
---------------------------------- 
---------------------------------- 
55555555-------------------------- 
55555555--55555555-3-2-3-2-2------ 
333333330-55555555--------5--5-3-5        
--------0-33333333----------------    

Little alternate thingy for GTR2 Second part 
--------------------------------- 
--------------------------------- 
-3-1-0-1-0-0---------------------                              
1---------3-3-1-3---------------- 
--------------------------------- 
---------------------------------                         
                                  
break 
------------------------- 
------------------------- 
------------------------- 
1212-121212-121212-121212 
1010-101010-101010-101010 
------------------------- 

End 
--------------------------------- 
--------------------------------- 
-------------------------------55 
33-x-77-x-55--x-33-x-77-x-55---55 
33-x-77-x-55--x-33-x-77-x-55---33 
11-x-55-x-33--x-11-x-55-x-33----- 

Structure 

Intro X2 
Verse X2 
Pre Courus 
Courus X 2 
VerseX3 
Pre Courus 
Courus X2 
Course alt X2 
Break 
Verse X2 
Pre Courus 
Courus X4 
End 
Comments