New Found Glory - My Heart Will Go On Chords & Tabs

 

My Heart Will Go On Chords & Tabs

New Found Glory Chords & Tabs

Version: 6 Type: Tab 0 ratings
1 star 2 stars 3 stars 4 stars 5 stars
comments

My Heart Will Go On Tab

Artist:A New Found Glory
Song:My Heart Will Go On
Tuning:Standard
Tabbed By: Josh T.
/=slide
()=palm mute
There are two guitars in the song, but on the chorus and verse they play the same thing so I'll just write it out once yeah ok
Intro
One of the guitars goes:
e|-------------------------------------------------------
B|-------------------------------------------------------
G|-------------------------------------------------------
D|-2*----------------------------------------------------
A|-2*----------------------------------------------------
E|-0*----------------------------------------------------
*let ring
This is the other guitarists part 
e|------------------------------------------------------
B|------------------------------------------------------
G|------------------------------------------------------
D|----------------------9-------------------------------
A|-7/9-9/11-11-11/9-7-9---11-9-7-4-2---7/9-9/11-11-11/9- 
E|------------------------------------------------------
and the first guitar does another strum of the D sharp he did earlier but you can figure out where he strums it again
e|-------------------------------------------
B|-------------------------------------------
G|-------------------------------------------
D|-----9-7-9-11-9----------------------------
A|-7/9---------------------------------------
E|-------------------------------------------
The the verse but they both play the same chords and stuff so this is it. 
e|---------------------------------------------------------
B|---------------------------------------------------------
G|-(9)(9)-9----------------------------(9)(9)-9------------
D|-(9)(9)-9----(9)(9)-9----(7)(7)-7----(9)(9)-9--(9)(9)-9--
A|-(7)(7)-7-x2-(9)(9)-9----(7)(7)-7----(7)(7)-7--(9)(9)-9--
E|-------------(7)(7)-7-x2-(5)(5)-5-x2-----------(7)(7)-7--
Then repeat that 3 times
Chorus 
e|--------------------------------------------------
B|--------------------------------------------------
G|-9----------6------9------------------------------
D|-9--9--7-7--6--9---9--9--7-7--(6)(6)-(4)(4)-------
A|-7--9--7-7--4--9---7--9--7-7--(6)(6)-(4)(4)-------
E|----7--5-5-----7------7--5-5--(4)(4)-(2)(2)-------
Then do the verse the same again except don't palm mute anything
This is that little thing right before the interlude when he yells "yeah"
e---------------------------------------------
B---------------------------------------------
G---------------------------------------------
D-------6-7--------4-6----(2)(2)(2)(2)*-------
A-------------------------(2)(2)(2)(2)*-------
E-(9)(9)----(7)(7)--------(0)(0)(0)(0)*-------
He plays that palm mute thing 16 times but im not going to type that out
The interlude is the same as the intro just play it faster and the first guitar plays the verse chords in the backround during that part. The do the chorus one more time and the outro is the same as the intro ok cya
-josh t.
[ Tab from: http://www.guitartabs.cc/tabs/n/new_found_glory/my_heart_will_go_on_tab_ver_6.html ]
Comments