New Found Glory - My Heart Will Go On Chords & Tabs

 

My Heart Will Go On Chords & Tabs

New Found Glory Chords & Tabs

Version: 2 Type: Tab 0 ratings
1 star 2 stars 3 stars 4 stars 5 stars
comments

My Heart Will Go On Tab

Artist:A New Found Glory
Song: My Heart Will Go On
Cd:From your screen to the stereo
Tabbed By: Zach 

Buy the album and learn the songs it will impress all your friends!

intro(0:04)
e:------------------------------
B:------------------------------
G:-------9----------------------
D:-------9-let ring-------------
A:-------7----------------------
E:------------------------------

second part (0:14)
e:------------------------------
B:------------------------------
G:--9--11----13--13---11--9-----
D:------------------------------
A:------------------------------
E:------------------------------

e:------------------------------
B:---12--10--9--5---------------
G:----------------6/4-----------
D:------------------------------
A:------------------------------
E:------------------------------

e:------------------------------
B:------------------------------
G:--9--11----13--13---11--9-----
D:------------------------------
A:------------------------------
E:------------------------------

e:------------------------------
B:---12--10--9--12--10--7-------
G:------------------------------
D:------------------------------
A:------------------------------
E:------------------------------
[ Tab from: http://www.guitartabs.cc/tabs/n/new_found_glory/my_heart_will_go_on_tab_ver_2.html ]
verse:
e:------------------------------
B:------------------------------
G:--9--------9------------------ listen for how many times to play chord
D:--9--9--7--9--7---------------
A:--7--9--7--7--7---------------
E:-----7--5-----5---------------


e:------------------------------
B:------------------------------
G:--9--------------------------- listen for how many times to play chord
D:--9--9--7---------------------
A:--7--9--7---------------------
E:-----7--5---------------------

chorus:
e:------------------------------
B:------------------------------
G:--9--------------------------- listen for how many times to play chord
D:--9--9--7--9------------------
A:--7--9--7--9------------------
E:-----7--5--7------------------

e:------------------------------
B:------------------------------
G:--9--------------------------- listen for how many times to play chord
D:--9--9--7---------------------
A:--7--9--7---------------------
E:-----7--5---------------------

solo:

Just play with the intro and you got it.

Ending: 
e:------------------------------
B:------------------------------
G:--9--11----13--13---11--9-----
D:------------------------------
A:------------------------------
E:------------------------------

e:------------------------------
B:---12--10--9--5---------------
G:----------------6/4-----------
D:------------------------------
A:------------------------------
E:------------------------------

That's it just listen and you can figure when to play what.
Comments