New Found Glory - My Heart Will Go On Chords & Tabs

 

My Heart Will Go On Chords & Tabs

New Found Glory Chords & Tabs

Version: 1 Type: Tab 0 ratings
1 star 2 stars 3 stars 4 stars 5 stars
comments

My Heart Will Go On Tab

   
Band:  New found Glory
Song:  My Heart Will Go On
Album: From your screen to your stereo
Tabbed by: Preston
E-mail: Re_Entry70@hotmail.com

This is the first time listening to the cd so I 
don't know the band very much, but they are way cool!
This song is really easy if you the timing right

Riff 1
E|-----------------------------|
B|-----------------------------|
G|9____________________________|
D|9__Let_ring__________________|
A|7____________________________|
E|7____________________________|

Riff 2
E|-------------------------|
B|-------------------------|
G|-------------------------|
D|-4h6---6-4-4s9--6-4------|
A|7---------7----------7---|
E|----------------------9p7|

Riff 3
E|----------------------------|
B|----------------------------|
G|----------------------------|
D|-4h6---6-4--4s9--7--9s11---9|
A|7---------7-----------------|
E|----------------------------|
[ Tab from: http://www.guitartabs.cc/tabs/n/new_found_glory/my_heart_will_go_on_tab.html ]
Riff 4 (Verse)
E|-----------------------------------------|
B|-----------------------------------------|
G|---9----9--------------------------9-----|
D|x-x9----9-----9----9-----7----7-x-x9----9|
A|x-x7-x-x7--x-x9-x-x9--x-x7-x-x7-x-x7-x-x9|
E|-----------x-x7-x-x7--x-x5-x-x5------x-x7|

Then it switches to this the after you do riff 4 once

E|-----------------------------------------|
B|-----------------------------------------|
G|---9----9--------------------------------|
D|x-x9----9-----9----9-----7----7----7----7|
A|x-x7-x-x7--x-x9-x-x9--x-x7-x-x7-x-x7-x-x7|
E|-----------x-x7-x-x7--x-x5-x-x5-x-x5-x-x5|

Riff 5 (Chorus)
E|----------------------------|
B|----------------------------|
G|----------------------------|
D|2--2-2--9--x-x-7-7s11-9--9-9|
A|2--2-2--9--x-x-7-7s11-9--9-9|
E|0--0-0--7--x-x-5-5s9--7--7-7|


Now the only work that you'll have to do is to put it 
all together for the song!

E-mail me
Comments