New Found Glory - My Heart Will Go On Chords & Tabs

 

My Heart Will Go On Chords & Tabs

New Found Glory Chords & Tabs

Version: 1 Type: Bass Tab 0 ratings
1 star 2 stars 3 stars 4 stars 5 stars
comments

My Heart Will Go On Bass Tab

Title: My Heart will go on
Artist: New found Glory
Mich Manaras (this is for Dre)

Verse:
G--------------------------------------------------
D--------------------------------------------------        
A-77-7--77-7-------------------------77-7----------
E------------77-7--77-7--55-5--55-5-------77-7-----
[ Tab from: http://www.guitartabs.cc/tabs/n/new_found_glory/my_heart_will_go_on_btab.html ]
G--------------------------------------------------
D--------------------------------------------------
A-77-7--77-7---------------------------------------
E------------77-7--77-7--55-5--55-5--55-5--55-5----

Pre-Chorus:
G--------------
D--------------
A--------------
E-4-2----------

Chorus:
G--------------------------------------------------------
D--------------------------------------------------------
A---------2-2-2--0-0-0--4-2----------2-2-2--0-0-0--------
E-0-0-0-0--------------------0-0-0-0--------------4-4-2-2

During the guitar solo just play the verse
Comments