New Found Glory - My Friends Over You Chords & Tabs

 

My Friends Over You Chords & Tabs

New Found Glory Chords & Tabs

Version: 3 Type: Tab 1 rating
1 star 2 stars 3 stars 4 stars 5 stars
comments

My Friends Over You Tab

Artist: New Found Glory
Title: My Friends Over You 
Tabbed By: dongivafuc 

Notes: - This is NFG's best song.
       - This Version is RIGHT.
       - Standard Tuning.

Theme [guitar 1]:                         Theme [guitar 2]:
------------------|--------------------|-|----------------------------------|
-------7----------|---------7----------|-|----------------------------------|
-9p7-9---9-7-7-7- |-9p7-7-9---9-7-7-7--|-|-7-7--x-7-x-7---------------------|
------------------|--------------------|-|-7-7--x-7-x-7--5-5--x-5-x-5-------|X4
------------------|--------------------|-|-5-5--x-5-x-5--5-5--x-5-x-5-------|
------------------|--------------------|-|---------------3-3--x-3-x-3-------|

Verse
------------------------------------------|-|-------------------------------|
------------------------------------------|-|-------------------------------|
-7-7--x-7-x-7----------------7-7--x-7-x-7-|-|-------------------------------|
-7-7--x-7-x-7--5-5--x-5-x-5--7-7--x-7-x-7-|-|-2-2-2-2-/2/5-5-5-5------------|X2
-5-5--x-5-x-5--5-5--x-5-x-5--5-5--x-5-x-5-|-|-2-2-2-2-/4/5-5-5-5------------|
---------------3-3--x-3-x-3---------------|-|-0-0-0-0-/4/3-3-3-3------------|

On The Second Half Of Each Verse, Guitar 1 Plays Intro Bit, Listen And 
You'll Hear It


Prechorus A (Guitar 2)                 Prechorus B
------------------------------------|-|-------------------------------------|
------------------------------------|-|-------------------------------------|
------------------------------------|-|-------------------------------------|
-2-2-2-2--5-5-5-5--2-2-2-2--5-5-5-5-|-|-7-7-7-7-7-7-7-7---------------------|
-2-2-2-2--5-5-5-5--2-2-2-2--5-5-5-5-|-|-7-7-7-7-7-7-7-7---------------------|
-0-0-0-0--3-3-3-3--0-0-0-0--3-3-3-3-|-|-5-5-5-5-5-5-5-5---------------------|
[ Tab from: http://www.guitartabs.cc/tabs/n/new_found_glory/my_friends_over_you_tab_ver_3.html ]
Guitar 1 Plays A Slight Variation To Guitar 2 On Both Verse Riff B And 
The Pre Chorus, Simpy Playing The Power Chords Higher Up On The A And E 
Strings, This Is Not Essential

Chorus 
------------------------------------|-|-------------------------------------|
------------------------------------|-|-------------------------------------|
--7-7-7-7-7-7-7-7-------------------|-|-------------------------------------|
--7-7-7-7-7-7-7-7--5-5-5-5-5-5-5-5--|-|-------------------------------------|X2
--5-5-5-5-5-5-5-5--5-5-5-5-5-5-5-5--|-|-------------------------------------|
-------------------3-3-3-3-3-3-3-3--|-|-------------------------------------|

Chorus 
-----------------------------------|-|--------------------------------------|
-----------------------------------|-|--------------------------------------|
-----------------------------------|-|-4-4-4-4-4-4-4-4----------------------|
--7-7-7-7-7-7-7-7--5-5-5-5-5-5-5-5-|-|-4-4-4-4-4-4-4-4--5-4-2-4-------------|
--7-7-7-7-7-7-7-7--5-5-5-5-5-5-5-5-|-|-2-2-2-2-2-2-2-2--5-4-2-4-------------|
--5-5-5-5-5-5-5-5--3-3-3-3-3-3-3-3-|-|------------------3-2-0-2-------------|

Bridge                       Bridge Ending
---------------------------|-|-----------------------------------------------|
---------------------------|-|-----------------------------------------------|
---------------------------|-|-7-7-------------------------------------------|
-------------------------X4|-|-7-7-------------------------------------------|
-5-----5-----2-----2-------|-|-5-5-------------------------------------------|
---2-3---2-3---2-3---5-3---|-|-----------------------------------------------|

[Theme - Both Guitars]

End On
-------
-------
-------
-5-5-5-
-5-5-5-
-3-3-3-


-------------------------------------------------------------------------------
Comments