New Found Glory - My Friends Over You Chords & Tabs

 

My Friends Over You Chords & Tabs

New Found Glory Chords & Tabs

Version: 2 Type: Tab 0 ratings
1 star 2 stars 3 stars 4 stars 5 stars
comments

My Friends Over You Tab

   
Author/Artist: New Found Glory
Title: My Friends Over You
Album: Sticks and Stones
Transcribed by: Rishesh Singh
Email: Sheesh@attbi.com

Notes: - This Version is RIGHT
       - Standard Tuning
       - Due to the structure of this song, instead
         of giving chords or just riffs, i've named 
         all the guitar parts, and at the bottom I have
         the lyrics with the guitar part's name so you
         know when to play.

Theme [guitar 2]:                         Theme [guitar 1]:
------------------|--------------------|-|----------------------------------|
------------------|--------------------|-|----------------------------------|
-9p7-9-11-9-7-7-7-|-9p7-7-9-11-9-7-7-7-|-|-7-7--x-7-x-7---------------------|
------------------|--------------------|-|-7-7--x-7-x-7--5-5--x-5-x-5-------|
------------------|--------------------|-|-5-5--x-5-x-5--5-5--x-5-x-5-------|
------------------|--------------------|-|---------------3-3--x-3-x-3-------|
                                          
                                    

Verse Riff A                     Verse Riff B
------------------------------|-|-------------------------------------------|
------------------------------|-|-------------------------------------------|
-7-7--x-7-x-7-----------------|-|-------------------------------------------|
-7-7--x-7-x-7--5-5--x-5-x-5---|-|-2-2-2-2---5-5-5-5-------------------------|
-5-5--x-5-x-5--5-5--x-5-x-5---|-|-2-2-2-2---5-5-5-5-------------------------|
---------------3-3--x-3-x-3---|-|-0-0-0-0---3-3-3-3-------------------------|
                                                                              

Prechorus A                            Prechorus B
------------------------------------|-|-------------------------------------|
------------------------------------|-|-------------------------------------|
------------------------------------|-|-------------------------------------|
-2-2-2-2--5-5-5-5--2-2-2-2--5-5-5-5-|-|-7-7-7-7-7-7-7-7---------------------|
-2-2-2-2--5-5-5-5--2-2-2-2--5-5-5-5-|-|-7-7-7-7-7-7-7-7---------------------|
-0-0-0-0--3-3-3-3--0-0-0-0--3-3-3-3-|-|-5-5-5-5-5-5-5-5---------------------|
                                                                              
[ Tab from: http://www.guitartabs.cc/tabs/n/new_found_glory/my_friends_over_you_tab_ver_2.html ]
Chorus A
------------------------------------|-|-------------------------------------|
------------------------------------|-|-------------------------------------|
--7-7-7-7-7-7-7-7-------------------|-|-------------------------------------|
--7-7-7-7-7-7-7-7--5-5-5-5-5-5-5-5--|-|-------------------------------------|
--5-5-5-5-5-5-5-5--5-5-5-5-5-5-5-5--|-|-------------------------------------|
-------------------3-3-3-3-3-3-3-3--|-|-------------------------------------|
                                                                              
Chorus B                              Chorus C
-----------------------------------|-|--------------------------------------|
-----------------------------------|-|--------------------------------------|
-----------------------------------|-|-4-4-4-4-4-4-4-4----------------------|
--7-7-7-7-7-7-7-7--5-5-5-5-5-5-5-5-|-|-4-4-4-4-4-4-4-4----------------------|
--7-7-7-7-7-7-7-7--5-5-5-5-5-5-5-5-|-|-2-2-2-2-2-2-2-2--5-4-2-4-------------|
--5-5-5-5-5-5-5-5--3-3-3-3-3-3-3-3-|-|------------------3-2-0-2-------------|
                                                                              

Breakdown                    End Breakdown
--------------------------|-|-----------------------------------------------|
--------------------------|-|-----------------------------------------------|
--------------------------|-|-7-7-------------------------------------------|
--------------------------|-|-7-7-------------------------------------------|
-5-----5-----2-----2------|-|-5-5-------------------------------------------|
---2-3---2-3---2-3---5-3--|-|-----------------------------------------------|


[Theme - Both Guitars]

[verse riff A x2]
i'm drunk off your kiss
for another night in a row
this is becoming too routine for me

[verse riff b]
but i didn't mean to lead you on

[verse riff a]
and its alright to pretend
that we still talk

[verse riff a w/ theme gtr 2.]
its just for show, isn't it?

[verse riff b]
its my fault that it fell apart

[prechorus A - x2]
just maybe you need this
                     | [prechorus B]
and i didn't mean to | lead you on

[chorus A - x2]
you were everything i wanted
but i just can't finish what i started

[chorus B - x2]
theres no room left here on my back
it was damaged long ago

[chorus C]
though you swear that you are true
i still pick my friends over you

[Theme - Both Guitars]
my friends over you

[play verse 2 like first]
please tell me everything
that you think that i should know
about all the plans you made

when i was nowhere to be found

and its alright to forget
that we still talk
its just for fun, isn't it?

its my fault that it fell apart

just maybe you need this
and I didn't mean to lead you on

[chorus A - x2]
you were everything i wanted
but i just can't finish what i started

[chorus B - x2]
theres no room left here on my back
it was damaged long ago

[chorus C]
though you swear that you are true
i still pick my friends over you

[Breakdownn]
my friends over you

ahhh

[End Breakdown - really clean + quiet x1 then no guitar]
just maybe you need this
you need this
and i didn't mean to 

[Pre-chorus B]
lead you on

[chorus A]
you were everything i wanted
but i just can't finish what i started

[chorus B]
theres no room left here on my back
it was damaged long ago

[chorus C]
though you swear that you are true
i still pick my friends over you

[played like the above chorus - 'cept with theme gtr. 2]
you were everything i wanted
but i just cant finish what i started
theres no room left here on my back
it was damaged long ago
though you swear that you are true
i still pick my friends over you

[Theme With Both Guitars]
my friends over you


End On

-------
-------
-------
-5-5-5-
-5-5-5-
-3-3-3-

                                                                              

Comments