New Found Glory - My Friends Over You Chords & Tabs

 

My Friends Over You Chords & Tabs

New Found Glory Chords & Tabs

Version: 14 Type: Tab 0 ratings
1 star 2 stars 3 stars 4 stars 5 stars
comments

My Friends Over You Tab

Tabbed by:GuitarMaster41
E-Mail:LukeMaster41@aol.com

Artist:New Found Glory
Album:Sticks And Stones
Song:My Friends Over You

Tuning:EBGDAE

/ = SLIDE UP
\ = SLIDE DOWN
h = HAMMER ON
p = PULL OFF
. = PALM MUTE
+ = HARMONIC

Q = 178

--------------------
Intro:
--------------------

Guitar 1
E|-----------------|-----------------|-----------------|-----------------|
B|-----------------|-----------------|-----------------|-----------------|
G|-----------------|-----------------|-----------------|-----------------|
D|-7-7-7---------7-|---7-7-----------|-----------------|-----------------|
A|-5-5-5---------5-|---5-5-----------|-5-5-5---------5-|---5-5-----------|
E|-----------------|-----------------|-3-3-3---------3-|---3-3-----------|
                 .     .                             .     .

Guitar 2
E|-----------------|-----------------|-----------------|-----------------|
B|-5---5-7-5-----5-|-----5-7-5-------|-5---5-7-5-----5-|-----5-7-5-------|
G|---7-------7-7---|-7-7-------7-7-7-|---7-------7-7---|-7-7-------7-7-7-|
D|-----------------|-----------------|-----------------|-----------------|
A|-----------------|-----------------|-----------------|-----------------|
E|-----------------|-----------------|-----------------|-----------------|

Guitar 1
E|-----------------|-----------------|-----------------|-----------------|
B|-----------------|-----------------|-----------------|-----------------|
G|-----------------|-----------------|-----------------|-----------------|
D|-7-7-7---------7-|---7-7-----------|-----------------|-----------------|
A|-5-5-5---------5-|---5-5-----------|-5-5-5---------5-|---5-5-----------|
E|-----------------|-----------------|-3-3-3---------3-|---3-3-----------|
                 .     .                             .     .

Guitar 2
E|-----------------|-----------------|-----------------|-----3-----------|
B|-5---5-7-5-----5-|-----5-7-5-------|-5---5-7-5-----5-|-----3-----------|
G|---7-------7-7---|-7-7-------7-7-7-|---7-------7-7---|-7-7-0-----------|
D|-----------------|-----------------|-----------------|-----------------|
A|-----------------|-----------------|-----------------|-----------------|
E|-----------------|-----------------|-----------------|-----------------|


--------------------
Verse:
--------------------

Guitars 1 & 2
E|-----------------|-----------------|-----------------|-----------------|
B|-----------------|-----------------|-----------------|-----------------|
G|-----------------|-----------------|-----------------|-----------------|
D|-7-7-7---------7-|---7-7-----------|-----------------|-----------------|
A|-5-5-5---------5-|---5-5-----------|-5-5-5---------5-|---5-5-----------|
E|-----------------|-----------------|-3-3-3---------3-|---3-3-----------|
                 .     .                             .     .

Guitar 1
E|-----------------|-----------------|-----------------|-----------------|
B|-----------------|-----------------|-----------------|-----------------|
G|-----------------|-----------------|-----------------|-----------------|
D|-7-7-7---------7-|---7-7-----------|-----------------|-----------------|
A|-5-5-5---------5-|---5-5-----------|-2--2----2-2-2-4-|-5--5----5-5-5-4-|
E|-----------------|-----------------|-0--0----0-0-0-2-|-3--3----3-3-3-2-|
                 .     .

Guitar 2
E|-----------------|-----------------|------------------|-----------------------|
B|-----------------|-----------------|------------------|-----------------------|
G|-----------------|-----------------|-9--9----9-9-9-11-|-12--12----12-12-12-11-|
D|-7-7-7---------7-|---7-7-----------|-x--x----x-x-x--x-|--x---x-----x--x--x--x-|
A|-5-5-5---------5-|---5-5-----------|-7--7----7-7-7--9-|-10--10----10-10-10--9-|
E|-----------------|-----------------|------------------|-----------------------|
                 .     .

Guitar 1
E|-----------------|-----------------|-----------------|-----------------|
B|-----------------|-----------------|-----------------|-----------------|
G|-----------------|-----------------|-----------------|-----------------|
D|-7-7-7---------7-|---7-7-----------|-----------------|-----------------|
A|-5-5-5---------5-|---5-5-----------|-5-5-5---------5-|---5-5-----------|
E|-----------------|-----------------|-3-3-3---------3-|---3-3-----------|
                 .     .                             .     .

Guitar 2
E|-----------------|-----------------|-----------------|-----------------|
B|-----------------|-----------------|-----------------|-----------------|
G|-----------------|-----------------|-----------------|-----------------|
D|-7-7-7---------7-|---7-7-------4h5-|-----------------|-----------------|
A|-5-5-5---------5-|---5-5------5----|-5-5-5---------5-|---5-5-----------|
E|-----------------|-----------------|-3-3-3---------3-|---3-3-----------|
                 .     .        .                    .     .

Guitar 1
E|-----------------|-----------------|
B|-----------------|-----------------|
G|-----------------|-----------------|
D|-7-7-7---------7-|---7-7-----------|
A|-5-5-5---------5-|---5-5-----------|
E|-----------------|-----------------|
                 .     .

Guitar 2
E|-----------------|-----------------|
B|-5---5-7-5-----5-|-----5-7-5-------|
G|---7-------7-7---|-7-7-------7-7-7-|
D|-----------------|-----------------|
A|-----------------|-----------------|
E|-----------------|-----------------|


--------------------
Pre-Chorus:
--------------------

Guitars 1 & 2
E|-----------------|-----------------|-----------------|-----------------|
B|-----------------|-----------------|-----------------|-----------------|
G|-----------------|-----------------|-----------------|-----------------|
D|-----------------|-----------------|-----------------|-----------------|
A|-2--2----2-2-2-4-|-5--5----5-5-5-4-|-2--2----2-2-2-4-|-5--5----5-5-5-4-|
E|-0--0----0-0-0-2-|-3--3----3-3-3-2-|-0--0----0-0-0-2-|-3--3----3-3-3-2-|

Guitar 1
E|-----------------|-----------------|
B|-----------------|-----------------|
G|-----------------|-----------------|
D|-----------------|-----------------|
A|-2--2----2-2-2-4-|-5--5----5-5-5-4-|
E|-0--0----0-0-0-2-|-3--3----3-3-3-2-|

Guitar 2
E|------------------|-----------------------|
B|------------------|-----------------------|
G|-9--9----9-9-9-11-|-12--12----12-12-12-11-|
D|-x--x----x-x-x--x-|--x---x-----x--x--x--x-|
A|-7--7----7-7-7--9-|-10--10----10-10-10--9-|
E|------------------|-----------------------|

Guitar 1
E|-----------------|-------|
B|-----------------|-------|
G|-----------------|-------|
D|-----------------|-------|
A|-7-7-x-7-7-7-x-7-|-7-7-7-|
E|-5-5-x-5-5-5-x-5-|-5-5-5-|

Guitar 2
E|-----------------|-------|
B|-----------------|-------|
G|-9-9-x-9-9-9-x-9-|-9-9-9-|
D|-x-x-x-x-x-x-x-x-|-x-x-x-|
A|-7-7-x-7-7-7-x-7-|-7-7-7-|
E|-----------------|-------|


--------------------
Chorus:
--------------------

Guitar 1 
E|-----------------|-----------------|-----------------|-----------------|
B|-----------------|-----------------|-----------------|-----------------|
G|-----------------|-----------------|-----------------|-----------------|
D|-7-7-7-7-7-7-7-7-|-7-7-7-7-7-7-7-7-|-----------------|---------------0-|
A|-5-5-5-5-5-5-5-5-|-5-5-5-5-5-5-5-5-|-5-5-5-5-5-5-5-5-|-5-5-5-5-5-5-5-0-|
E|-----------------|-----------------|-3-3-3-3-3-3-3-3-|-3-3-3-3-3-3-3---|

Guitar 2
E|-----------------|-----------------|-----------------|-----------------|
B|-----------------|-----------------|-----------------|-----------------|
G|-7-7-7-7-7-7-7-7-|-7-7-7-7-7-7-7-7-|-7-7-7-7-7-7-7-7-|-7-7-7-7-7-6-6-6-|
D|-x-x-x-x-x-x-x-x-|-x-x-x-x-x-x-x-x-|-x-x-x-x-x-x-x-x-|-x-x-x-x-x-x-x-x-|
A|-5-5-5-5-5-5-5-5-|-5-5-5-5-5-5-5-5-|-5-5-5-5-5-5-5-5-|-5-5-5-5-5-4-4-4-|
E|-----------------|-----------------|-----------------|-----------------|

Guitar 1 
E|-----------------|-----------------|-----------------|-----------------|
B|-----------------|-----------------|-----------------|-----------------|
G|-----------------|-----------------|-----------------|-----------------|
D|-7-7-7-7-7-7-7-7-|-7-7-7-7-7-7-7-7-|-----------------|---------------0-|
A|-5-5-5-5-5-5-5-5-|-5-5-5-5-5-5-5-5-|-5-5-5-5-5-5-5-5-|-5-5-5-5-5-5-5-0-|
E|-----------------|-----------------|-3-3-3-3-3-3-3-3-|-3-3-3-3-3-3-3---|

Guitar 2
E|-----------------|-----------------|-----------------|-----------------|
B|-----------------|-----------------|-----------------|-----------------|
G|-----------------|-------------0-0-|-----------------|-----------------|
D|-7-7-7-7-7-7-7-7-|-7-7-7-7-7-7-0-0-|-----------------|-----------------|
A|-5-5-5-5-5-5-5-5-|-5-5-5-5-5-5-0-0-|-5-5-5-5-5-5-5-5-|-----------------|
E|-----------------|-----------------|-3-3-3-3-3-3-3-3-|-x\--------------|
                                                    (Pickslide!)
Guitar 3
E|-----------------|-----------------|-----------------|-----------------|
B|-----------------|-----------------|-----------------|-----------------|
G|-7-7-7-7-7-7-7-7-|-7-7-7-7-7-7-7-7-|-7-7-7-7-7-7-7-7-|-7-7-7-7-7-7-7-7-|
D|-x-x-x-x-x-x-x-x-|-x-x-x-x-x-x-x-x-|-x-x-x-x-x-x-x-x-|-x-x-x-x-x-x-x-x-|
A|-5-5-5-5-5-5-5-5-|-5-5-5-5-5-5-5-5-|-5-5-5-5-5-5-5-5-|-5-5-5-5-5-5-5-5-|
E|-----------------|-----------------|-----------------|-----------------|

Guitar 1
E|-----------------|-----------------|-----------------|-----------------|
B|-----------------|-----------------|-----------------|-----------------|
G|-----------------|-----------------|-----------------|-----------------|
D|-4-4-4-4-4-4-4-4-|-4-4-4-4-4-4-4-0-|-----------------|-----------------|
A|-2-2-2-2-2-2-2-2-|-2-2-2-2-2-2-2-0-|-5-5-5-5-5-5-5-5-|-5-5-5-5-5-5-5-0-|
E|-----------------|-----------------|-3-3-3-3-3-3-3-3-|-3-3-3-3-3-3-3---|

Guitar 2
E|-----------------|-----------------|-----------------|-----------------|
B|-----------------|-----------------|-----------------|-----------------|
G|-4-4-4-4-4-4-4-4-|-6-6-6-6-7-7-7-7-|-7-7-7-7-7-7-7-7-|-6-6-6-6-7-7-7-7-|
D|-x-x-x-x-x-x-x-x-|-x-x-x-x-x-x-x-x-|-x-x-x-x-x-x-x-x-|-x-x-x-x-x-x-x-x-|
A|-2-2-2-2-2-2-2-2-|-4-4-4-4-5-5-5-5-|-5-5-5-5-5-5-5-5-|-4-4-4-4-5-5-5-5-|
E|-----------------|-----------------|-----------------|-----------------|

Guitar 1
E|-----------------|-----------------|-----------------|-----------------|
B|-----------------|-----------------|-----------------|-----------------|
G|-----------------|-----------------|-----------------|-----------------|
D|-4-4-4-4-4-4-4-4-|-4-4-4-4-4-4-4-4-|-----------------|-----------------|
A|-2-2-2-2-2-2-2-2-|-2-2-2-2-2-2-2-2-|-----------------|-----------------|
E|-----------------|-----------------|-----------------|-----------------|

Guitar 2
E|-----------------|-----------------|-----------------|-----------------|
B|-----------------|-----------------|-----------------|-----------------|
G|-4-4-4-4-4-4-4-4-|-6-6-6-6-7-7-7-7-|-----------------|-----------------|
D|-x-x-x-x-x-x-x-x-|-x-x-x-x-x-x-x-x-|-----------------|-----------------|
A|-2-2-2-2-2-2-2-2-|-4-4-4-4-5-5-5-5-|-------------5-5-|-0---------------|
E|-----------------|-----------------|-3-3-2-2-0-0-----|-----------------|


--------------------
Intro
--------------------


--------------------
Verse
--------------------


--------------------
Pre-Chorus
--------------------


--------------------
Chorus
--------------------


--------------------
Interlude:
--------------------

Guitar 1
E|-------------|-------------|-------------|-------------|
B|-------------|-------------|-------------|-------------|
G|-7-----------|-7-----------|-4-----------|-4-----------|
D|-x----4----5-|-x----4----5-|-x----4----5-|-x----7----5-|
A|-5----x----x-|-5----x----x-|-2----x----x-|-2----x----x-|
E|------2----3-|------2----3-|------2----3-|------5----3-|

Guitar 2
E|-------------|-------------|-------------|-------------|
B|-------------|-------------|-------------|-------------|
G|-------------|-------------|-------------|-------------|
D|-------------|-------------|-------------|-------------|
A|-------------|-------------|-------------|-------------|
E|-------------|-------------|-------------|-------------|

Guitars 1 & 2
E|-------------|-------------|-------------|-------------|
B|-------------|-------------|-------------|-------------|
G|-------------|-------------|-------------|-------------|
D|-------------|-------------|-4-----------|-4-----------|
A|-5----4----5-|-5----4----5-|-2----4----5-|-2----7----5-|
E|------2----3-|------2----3-|------2----3-|------5----3-|

Guitars 1 & 2
E|-------------|-------------|-------------|-------------|
B|-------------|-------------|-------------|-------------|
G|-------------|-------------|-------------|-------------|
D|-------------|-------------|-4-----------|-4-----------|
A|-5----4----5-|-5----4----5-|-2----4----5-|-2----7----5-|
E|------2----3-|------2----3-|------2----3-|------5----3-|
[ Tab from: http://www.guitartabs.cc/tabs/n/new_found_glory/my_friends_over_you_tab_ver_14.html ]
Guitar 1
E|-------------|-------------|-------------|-------------|
B|-------------|-------------|-------------|-------------|
G|-------------|-------------|-------------|-------------|
D|-------------|-------------|-4-----------|-4-----------|
A|-5----4----5-|-5----4----5-|-2----4----5-|-2----7----5-|
E|------2----3-|------2----3-|------2----3-|------5----3-|

Guitar 2
E|-------------|-------------|-------------|-------------|
B|-------------|-------------|-------------|-------------|
G|-------------|-------------|-------------|-------------|
D|-------------|-------------|-------------|-------------|
A|-------------|-------------|-------------|-------------|
E|-------------|-------------|-------------|-------------|


--------------------
Bridge:
--------------------

Guitar 1 (Clean tone!)
E|------------|--------------|------------|-------------|
B|------------|--------------|------------|-------------|
G|------------|--------------|------------|-------------|
D|------------|--------------|------------|-------------|
A|-5----x---5-|-5----5-5-5-5-|------x---5-|-5----5--5-5-|
E|-0----x-0-2-|-3----3-3-3-3-|-0----x-0-2-|-3----3--3-3-|

Guitar 2 (Hold this chord throughout the measures.)
E|------------|--------------|------------|-------------|
B|------------|--------------|------------|-------------|
G|------------|--------------|------------|-------------|
D|-2----------|--------------|------------|-------------|
A|-2----------|--------------|------------|-------------|
E|-0----------|--------------|------------|-------------|

Guitar 1
E|------------|--------------|-----------------|-------|
B|------------|--------------|-----------------|-------|
G|------------|--------------|-9-9---9-9-9---9-|-9-9-9-|
D|------------|--------------|-x-x-x-x-x-x-x-x-|-x-x-x-|
A|-5----x-0-5-|-5----5-5-5-5-|-7-7-x-7-7-7-x-7-|-7-7-7-|
E|-0----x---2-|-3----3-3-3-3-|-----------------|-------|

Guitar 2
E|------------|--------------|-----------------|---------|
B|------------|--------------|-----------------|---------|
G|------------|--------------|-----------------|---------|
D|-2----------|--------------|-----------------|---------|
A|-2----------|--------------|-7-7-x-7-7-7-x-7-|-7-7-7-3-|
E|-0----------|--------------|-5-5-x-5-5-5-x-5-|-5-5-5---|
                                                       +

--------------------
Chorus:
--------------------

Guitar 1 
E|-----------------|-----------------|-----------------|-----------------|
B|-----------------|-----------------|-----------------|-----------------|
G|-----------------|-----------------|-----------------|-----------------|
D|-7-7-7-7-7-7-7-7-|-7-7-7-7-7-7-7-7-|-----------------|---------------0-|
A|-5-5-5-5-5-5-5-5-|-5-5-5-5-5-5-5-5-|-5-5-5-5-5-5-5-5-|-5-5-5-5-5-5-5-0-|
E|-----------------|-----------------|-3-3-3-3-3-3-3-3-|-3-3-3-3-3-3-3---|

Guitar 2
E|-----------------|-----------------|-----------------|-----------------|
B|-----------------|-----------------|-----------------|-----------------|
G|-7-7-7-7-7-7-7-7-|-7-7-7-7-7-7-7-7-|-7-7-7-7-7-7-7-7-|-7-7-7-7-7-6-6-6-|
D|-x-x-x-x-x-x-x-x-|-x-x-x-x-x-x-x-x-|-x-x-x-x-x-x-x-x-|-x-x-x-x-x-x-x-x-|
A|-5-5-5-5-5-5-5-5-|-5-5-5-5-5-5-5-5-|-5-5-5-5-5-5-5-5-|-5-5-5-5-5-4-4-4-|
E|-----------------|-----------------|-----------------|-----------------|

Guitar 1 
E|-----------------|-----------------|-----------------|-----------------|
B|-----------------|-----------------|-----------------|-----------------|
G|-----------------|-----------------|-----------------|-----------------|
D|-7-7-7-7-7-7-7-7-|-7-7-7-7-7-7-7-7-|-----------------|---------------0-|
A|-5-5-5-5-5-5-5-5-|-5-5-5-5-5-5-5-5-|-5-5-5-5-5-5-5-5-|-5-5-5-5-5-5-5-0-|
E|-----------------|-----------------|-3-3-3-3-3-3-3-3-|-3-3-3-3-3-3-3---|

Guitar 2
E|-----------------|-----------------|-----------------|-----------------|
B|-----------------|-----------------|-----------------|-----------------|
G|-----------------|-------------0-0-|-----------------|-----------------|
D|-7-7-7-7-7-7-7-7-|-7-7-7-7-7-7-0-0-|-----------------|-----------------|
A|-5-5-5-5-5-5-5-5-|-5-5-5-5-5-5-0-0-|-5-5-5-5-5-5-5-5-|-----------------|
E|-----------------|-----------------|-3-3-3-3-3-3-3-3-|-x\--------------|
                                                    (Pickslide!)
Guitar 3
E|-----------------|-----------------|-----------------|-----------------|
B|-----------------|-----------------|-----------------|-----------------|
G|-7-7-7-7-7-7-7-7-|-7-7-7-7-7-7-7-7-|-7-7-7-7-7-7-7-7-|-7-7-7-7-7-7-7-7-|
D|-x-x-x-x-x-x-x-x-|-x-x-x-x-x-x-x-x-|-x-x-x-x-x-x-x-x-|-x-x-x-x-x-x-x-x-|
A|-5-5-5-5-5-5-5-5-|-5-5-5-5-5-5-5-5-|-5-5-5-5-5-5-5-5-|-5-5-5-5-5-5-5-5-|
E|-----------------|-----------------|-----------------|-----------------|

Guitar 1
E|-----------------|-----------------|-----------------|-----------------|
B|-----------------|-----------------|-----------------|-----------------|
G|-----------------|-----------------|-----------------|-----------------|
D|-4-4-4-4-4-4-4-4-|-4-4-4-4-4-4-4-0-|-----------------|-----------------|
A|-2-2-2-2-2-2-2-2-|-2-2-2-2-2-2-2-0-|-5-5-5-5-5-5-5-5-|-5-5-5-5-5-5-5-0-|
E|-----------------|-----------------|-3-3-3-3-3-3-3-3-|-3-3-3-3-3-3-3---|

Guitar 2
E|-----------------|-----------------|-----------------|-----------------|
B|-----------------|-----------------|-----------------|-----------------|
G|-4-4-4-4-4-4-4-4-|-6-6-6-6-7-7-7-7-|-7-7-7-7-7-7-7-7-|-6-6-6-6-7-7-7-7-|
D|-x-x-x-x-x-x-x-x-|-x-x-x-x-x-x-x-x-|-x-x-x-x-x-x-x-x-|-x-x-x-x-x-x-x-x-|
A|-2-2-2-2-2-2-2-2-|-4-4-4-4-5-5-5-5-|-5-5-5-5-5-5-5-5-|-4-4-4-4-5-5-5-5-|
E|-----------------|-----------------|-----------------|-----------------|

Guitar 1
E|-----------------|-----------------|-----------------|-----------------|
B|-----------------|-----------------|-----------------|-----------------|
G|-----------------|-----------------|-----------------|-----------------|
D|-4-4-4-4-4-4-4-4-|-4-4-4-4-4-4-4-4-|-----------------|-----------------|
A|-2-2-2-2-2-2-2-2-|-2-2-2-2-2-2-2-2-|-----------------|-----------------|
E|-----------------|-----------------|-----------------|-----------------|

Guitar 2
E|-----------------|-----------------|-----------------|-----------------|
B|-----------------|-----------------|-----------------|-----------------|
G|-4-4-4-4-4-4-4-4-|-6-6-6-6-7-7-7-7-|-----------------|-----------------|
D|-x-x-x-x-x-x-x-x-|-x-x-x-x-x-x-x-x-|-----------------|-----------------|
A|-2-2-2-2-2-2-2-2-|-4-4-4-4-5-5-5-5-|-------------5-5-|-0---------------|
E|-----------------|-----------------|-3-3-2-2-0-0-----|-----------------|

Guitar 1 
E|-----------------|-----------------|-----------------|-----------------|
B|-----------------|-----------------|-----------------|-----------------|
G|-----------------|-----------------|-----------------|-----------------|
D|-7-7-7-7-7-7-7-7-|-7-7-7-7-7-7-7-7-|-----------------|---------------0-|
A|-5-5-5-5-5-5-5-5-|-5-5-5-5-5-5-5-5-|-5-5-5-5-5-5-5-5-|-5-5-5-5-5-5-5-0-|
E|-----------------|-----------------|-3-3-3-3-3-3-3-3-|-3-3-3-3-3-3-3---|

Guitar 2
E|-----------------|-----------------|-----------------|-----------------|
B|-----------------|-----------------|-----------------|-----------------|
G|-7-7-7-7-7-7-7-7-|-7-7-7-7-7-7-7-7-|-7-7-7-7-7-7-7-7-|-7-7-7-7-7-6-6-6-|
D|-x-x-x-x-x-x-x-x-|-x-x-x-x-x-x-x-x-|-x-x-x-x-x-x-x-x-|-x-x-x-x-x-x-x-x-|
A|-5-5-5-5-5-5-5-5-|-5-5-5-5-5-5-5-5-|-5-5-5-5-5-5-5-5-|-5-5-5-5-5-4-4-4-|
E|-----------------|-----------------|-----------------|-----------------|

Guitar 3
E|-----------------|-----------------|-----------------|-----------------|
B|-5---5-7-5-----5-|-----5-7-5-------|-5---5-7-5-----5-|-----5-7-5-------|
G|---7-------7-7---|-7-7-------7-7-7-|---7-------7-7---|-7-7-------7-7-7-|
D|-----------------|-----------------|-----------------|-----------------|
A|-----------------|-----------------|-----------------|-----------------|
E|-----------------|-----------------|-----------------|-----------------|

Guitar 1 
E|-----------------|-----------------|-----------------|-----------------|
B|-----------------|-----------------|-----------------|-----------------|
G|-----------------|-----------------|-----------------|-----------------|
D|-7-7-7-7-7-7-7-7-|-7-7-7-7-7-7-7-7-|-----------------|---------------0-|
A|-5-5-5-5-5-5-5-5-|-5-5-5-5-5-5-5-5-|-5-5-5-5-5-5-5-5-|-5-5-5-5-5-5-5-0-|
E|-----------------|-----------------|-3-3-3-3-3-3-3-3-|-3-3-3-3-3-3-3---|

Guitar 2
E|-----------------|-----------------|-----------------|-----------------|
B|-----------------|-----------------|-----------------|-----------------|
G|-7-7-7-7-7-7-7-7-|-7-7-7-7-7-7-7-7-|-7-7-7-7-7-7-7-7-|-7-7-7-7-7-7-7-7-|
D|-x-x-x-x-x-x-x-x-|-x-x-x-x-x-x-x-x-|-x-x-x-x-x-x-x-x-|-x-x-x-x-x-x-x-x-|
A|-5-5-5-5-5-5-5-5-|-5-5-5-5-5-5-5-5-|-5-5-5-5-5-5-5-5-|-5-5-5-5-5-5-5-5-|
E|-----------------|-----------------|-----------------|-----------------|

Guitar 3
E|-----------------|-----------------|-----------------|-----------------|
B|-5---5-7-5-----5-|-----5-7-5-------|-5---5-7-5-----5-|-----5-7-5-------|
G|---7-------7-7---|-7-7-------7-7-7-|---7-------7-7---|-7-7-------7-7-7-|
D|-----------------|-----------------|-----------------|-----------------|
A|-----------------|-----------------|-----------------|-----------------|
E|-----------------|-----------------|-----------------|-----------------|

Guitar 1
E|-----------------|-----------------|-----------------|-----------------|
B|-----------------|-----------------|-----------------|-----------------|
G|-----------------|-----------------|-----------------|-----------------|
D|-4-4-4-4-4-4-4-4-|-4-4-4-4-4-4-4-0-|-----------------|-----------------|
A|-2-2-2-2-2-2-2-2-|-2-2-2-2-2-2-2-0-|-5-5-5-5-5-5-5-5-|-5-5-5-5-5-5-5-0-|
E|-----------------|-----------------|-3-3-3-3-3-3-3-3-|-3-3-3-3-3-3-3---|

Guitar 2
E|-----------------|-----------------|-----------------|-----------------|
B|-----------------|-----------------|-----------------|-----------------|
G|-4-4-4-4-4-4-4-4-|-6-6-6-6-7-7-7-7-|-7-7-7-7-7-7-7-7-|-6-6-6-6-7-7-7-7-|
D|-x-x-x-x-x-x-x-x-|-x-x-x-x-x-x-x-x-|-x-x-x-x-x-x-x-x-|-x-x-x-x-x-x-x-x-|
A|-2-2-2-2-2-2-2-2-|-4-4-4-4-5-5-5-5-|-5-5-5-5-5-5-5-5-|-4-4-4-4-5-5-5-5-|
E|-----------------|-----------------|-----------------|-----------------|

Guitar 1
E|-----------------|-----------------|-----------------|-----------------|
B|-----------------|-----------------|-----------------|-----------------|
G|-----------------|-----------------|-----------------|-----------------|
D|-4-4-4-4-4-4-4-4-|-4-4-4-4-4-4-4-4-|-----------------|-----------------|
A|-2-2-2-2-2-2-2-2-|-2-2-2-2-2-2-2-2-|-----------------|-----------------|
E|-----------------|-----------------|-----------------|-----------------|

Guitar 2
E|-----------------|-----------------|-----------------|-----------------|
B|-----------------|-----------------|-----------------|-----------------|
G|-4-4-4-4-4-4-4-4-|-6-6-6-6-7-7-7-7-|-----------------|-----------------|
D|-x-x-x-x-x-x-x-x-|-x-x-x-x-x-x-x-x-|-----------------|-----------------|
A|-2-2-2-2-2-2-2-2-|-4-4-4-4-5-5-5-5-|-------------5-5-|-0---------------|
E|-----------------|-----------------|-3-3-2-2-0-0-----|-----------------|


--------------------
Outro:
--------------------

Guitar 1
E|-----------------|-----------------|-----------------|-----------------|
B|-----------------|-----------------|-----------------|-----------------|
G|-----------------|-----------------|-----------------|-----------------|
D|-7-7-7---------7-|---7-7-----------|-----------------|-----------------|
A|-5-5-5---------5-|---5-5-----------|-5-5-5---------5-|---5-5-----------|
E|---------------5-|---5-------------|-3-3-3---------3-|---3-3-----------|
                 .     .                             .     .

Guitar 2
E|-----------------|-----------------|-----------------|-----------------|
B|-5---5-7-5-----5-|-----5-7-5-------|-5---5-7-5-----5-|-----5-7-5-------|
G|---7-------7-7---|-7-7-------7-7-7-|---7-------7-7---|-7-7-------7-7-7-|
D|-----------------|-----------------|-----------------|-----------------|
A|-----------------|-----------------|-----------------|-----------------|
E|-----------------|-----------------|-----------------|-----------------|

Guitar 1
E|-----------------|-----------------|-----------------|-----------------|
B|-----------------|-----------------|-----------------|-----------------|
G|-----------------|-----------------|-----------------|-----------------|
D|-7-7-7---------7-|---7-7-----------|-----------------|-----------------|
A|-5-5-5---------5-|---5-5-----------|-5-5-5---------5-|---5-5-----------|
E|-----------------|-----------------|-3-3-3---------3-|---3-3-----------|
                 .     .                             .     .

Guitar 2
E|-----------------|-----------------|-----------------|-----3-----------|
B|-5---5-7-5-----5-|-----5-7-5-------|-5---5-7-5-----5-|-----3-----------|
G|---7-------7-7---|-7-7-------7-7-7-|---7-------7-7---|-7-7-0-----------|
D|-----------------|-----------------|-----------------|-----------------|
A|-----------------|-----------------|-----------------|-----------------|
E|-----------------|-----------------|-----------------|-----------------|
Comments