New Found Glory - My Friends Over You Chords & Tabs

 

My Friends Over You Chords & Tabs

New Found Glory Chords & Tabs

Version: 4 Type: Bass Tab 0 ratings
1 star 2 stars 3 stars 4 stars 5 stars
comments

My Friends Over You Bass Tab

   
Regular tuning (E,A,D,G)
INTRO x2
G|----------------------------------------------------------------------------|
D|----------------------------------------------------------------------------|
A|-5-5---5-5-5----------------------------------------------------------------|
E|---------------3-3---3-3-3~-------------------------------------------------|

   VERSE x2
G|----------------------------------------------------------------------------|
D|----------------------------------------------------------------------------|
A|-5-5--5-5-5--------------------5-5---5-5-5----------------------------------|
E|---------------3-3---3-3-3------------------0-0-0-0--3-3-3-3----------------|

   PRECHORUS x1
G|----------------------------------------------------------------------------|
D|----------------------------------------------------------------------------|
A|----------------------------------------------------------------------------|
E|-0-0-0-0--3-3-3-3--0-0-0-0--3-3-3-3--5-5--5-5-5--5-5-5----------------------|
[ Tab from: http://www.guitartabs.cc/tabs/n/new_found_glory/my_friends_over_you_btab_ver_4.html ]
   CHORUS x2				
G|----------------------------------------------------------------------------|
D|----------------------------------------------------------------------------|
A|-5555555555555555-----------------------------------------------------------|
E|-------------------3333333333333333-----------------------------------------|
                                                                              
   CHORUS x1
G|----------------------------------------------------------------------------|
D|----------------------------------------------------------------------------|
A|-2222222222222222--------------------2222222222222222-----------------------|
E|-------------------3333333333333333--------------------3-3-2-0--5-----------|

INTRO
VERSE
PRECHORUS
CHORUS

*GUITAR PLAYS BRIDGE ALONE 1 TIME*

    BRIDGE x3				      PRECHORUS x1
G|-----------------------------------------|----------------------------------|
D|-----------------------------------------|----------------------------------|
A|-5--------5--------2--------2------------|-*GUITAR*-------------------------|
E|----2--3-----2--3-----2--3-----5--3------|------------5-5--5-5-5--5-5-5-----|

    CHORUS WITH FILLS x2
G|----------------------------------------------------------------------------|
D|----------------------------------------------------------------------------|
A|-5555555555555555----------------------55555555555555-9-10------------------|
E|-------------------2-33333333333333-5-----------------------3333333333333333|

G|----------------------------------------------------------------------------|
D|----------------------------------------------------------------------------|
A|-2222222222222222------------10-9-7-5--2222222222222222---------------------|
E|-------------------33333333------------------------------3-3-2-0--5---------|

    OUTRO x2
G|----------------------------------------------------------------------------|
D|----------------------------------------------------------------------------|
A|-5-5---5-5-5----------------------------------------------------------------|
E|--------------3-3---3-3-3~--------------------------------------------------|
Comments