New Found Glory - My Friends Over You Chords & Tabs

 

My Friends Over You Chords & Tabs

New Found Glory Chords & Tabs

Version: 1 Type: Bass Tab 0 ratings
1 star 2 stars 3 stars 4 stars 5 stars
comments

My Friends Over You Bass Tab

Intro  (0:00)
G---------------------
D---------------------  X2
A-555-5-55------------
E-----------333-3-33--
 
Verse  (0:13)
G--------------------------------------------------
D--------------------------------------------------  X2
A-555-5-55------------555-5-55--------------------- 
E-----------333-3-33------------0-0-0002-3-3-3332-- 

Pre-Chorus  (0:34)
G--------------------
D--------------------  X3
A--------------------
E-0-0-0002-3-3-3332--

(lead you on...)  (0:40)
G--------------
D--------------
A-55-555-5555--
E--------------

Chorus  (0:42)
G------------------------------------------------------------------
D------------------------------------------------------------------
A-5-5-5-5-5-5-5-5-5-5-5-5-5-5-5-5----------------------------------
E---------------------------------2-2-3-3-3-3-3-3-3-3-3-3-3-3-3-3--

G------------------------------------------------------------------
D------------------------------------------------------------------
A-5-5-5-5-5-5-5-5-5-5-5-5-5-5-5-5----------------------------------
E---------------------------------2-2-3-3-3-3-3-3-3-3-3-3-3-3-3-3--

G------------------------------------------------------------------
D------------------------------------------------------------------
A-2-2-2-2-2-2-2-2-2-2-2-2-2-2-2-2----------------------------------
E---------------------------------3-3-3-3-3-3-3-3-3-3-3-3-3-3-3-3--

G-------------------------------------------------
D-----------------------4-------------------------
A-2-2-2-2-2-2-2-2-2-2-2---2-2-2-2----------55-0~--
E---------------------------------33-22-00--------

Intro  (1:04)
G---------------------
D---------------------  X2
A-555-5-55------------
E-----------333-3-33--
 
Verse  (1:15)
G--------------------------------------------------
D--------------------------------------------------  X2
A-555-5-55------------555-5-55--------------------- 
E-----------333-3-33------------0-0-0002-3-3-3332--  

Pre-Chorus  (1:37)
G-------------------- 
D--------------------  X3
A--------------------
E-0-0-0002-3-3-3332--

(lead you on...)  (1:42)
G--------------
D--------------
A-55-555-5555--
E--------------

Chorus  (1:45)
G------------------------------------------------------------------
D------------------------------------------------------------------
A-5-5-5-5-5-5-5-5-5-5-5-5-5-5-5-5----------------------------------
E---------------------------------2-2-3-3-3-3-3-3-3-3-3-3-3-3-3-3--

G------------------------------------------------------------------
D------------------------------------------------------------------
A-5-5-5-5-5-5-5-5-5-5-5-5-5-5-5-5----------------------------------
E---------------------------------2-2-3-3-3-3-3-3-3-3-3-3-3-3-3-3--
[ Tab from: http://www.guitartabs.cc/tabs/n/new_found_glory/my_friends_over_you_btab.html ]
G------------------------------------------------------------------
D------------------------------------------------------------------
A-2-2-2-2-2-2-2-2-2-2-2-2-2-2-2-2----------------------------------
E---------------------------------3-3-3-3-3-3-3-3-3-3-3-3-3-3-3-3--

G-------------------------------------------------
D-----------------------4-------------------------
A-2-2-2-2-2-2-2-2-2-2-2---2-2-2-2----------55-0~--
E---------------------------------33-22-00--------

REST

Bridge  (2:12)
G-------------------------- 
D--------------------------  X2
A-5-----5-----2-----2------
E---2-3---2-3---2-3---5-3-- 

(2:22)
G--------------------------------
D--------------------------------  X1
A-5-----5-----2-----2------------
E---2-3---2-3---2-3---5-3--0~~~-- 

REST

(lead you on...)  (2:36)
G--------------
D--------------
A-55-555-5555--
E--------------

Chorus  (2:39)
G------------------------------------------------------------------
D------------------------------------------------------------------
A-5-5-5-5-5-5-5-5-5-5-5-5-5-5-5-5----------------------------------
E---------------------------------5-5-3-3-3-3-3-3-3-3-3-3-3-3-3-3--

G------------------------------------------------------------------
D------------------------------------------------------------------
A-5-5-5-5-5-5-5-5-5-5-5-5-5-5-5-5----------------------------------
E---------------------------------5-5-3-3-3-3-3-3-3-3-3-3-3-3-3-3--

G------------------------------------------------------------------
D------------------------------------------------------------------
A-2-2-2-2-2-2-2-2-2-2-2-2-2-2-2-2----------------------------------
E---------------------------------3-3-3-3-3-3-3-3-3-3-3-3-3-3-3-3--

G-------------------------------------------------
D-----------------------4-------------------------
A-2-2-2-2-2-2-2-2-2-2-2---2-2-2-2----------55-0~--
E---------------------------------33-22-00--------

Outro-Chorus  (3:01))
G------------------------------------------------------------------
D------------------------------------------------------------------
A-5-5-5-5-5-5-5-5-5-5-5-5-5-5--------------------------------------
E-----------------------------5-5-3-3-3-3-3-3-3-3-3-3-3-3-3-3-3-3--

G------------------------------------------------------------------
D-------------------------4-4-7-7-5-5-5-5-5-5-5-5-5-5-5-5-5-5-5----
A-5-5-5-5-5-5-5-5-5-5-5-5---------------------------------------0--
E------------------------------------------------------------------

G------------------------------------------------------------------
D-------------------------------------------------5-5-4-4-2-2-0-0--
A-2-2-2-2-2-2-2-2-2-2-2-2-2-2-2------------------------------------
E-------------------------------0-3-3-3-3-3-3-3-3------------------

G-------------------------------------------------
D-------------------------------------------------
A-2-2-2-2-2-2-2-2-2-2-2-2-2-2-2-2----------55-0~--
E---------------------------------33-22-00--------

Outro  (3:22)
G----------------------
D----------------------  X2
A-555-5-55-------------
E-----------333-3-33~--

Comments