New Found Glory - Its Been A Summer Chords & Tabs

 

Its Been A Summer Chords & Tabs

New Found Glory Chords & Tabs

Version: 4 Type: Tab 0 ratings
1 star 2 stars 3 stars 4 stars 5 stars
comments

Its Been A Summer Tab

   
New Found Glory - It's Been A Summer
Sticks and Stones
Tabbed by Tony Fangel

This is the first tab I have seen for this song so hopefully everything is 
right.  It is D tuned for a deeper sound.  If you have any questions or changes 
please email me @ tonybalony4@yahoo.com.  The only part I'm not sure about 
is the 2nd guitar in the verse.  This is a great song and its even better to play!

pm - Palm Mute all the notes until the --- ends

Intro
E|----------------------------------
B|----------------------------------
G|----------------------------------
D|----------------------------------
A|---------5555555022240002---------
D|-00000000-----------------5555323-

(2nd guitar comes in)
E|----------------------------------
B|----------------------------------
G|----------------------------------
D|--------------------------5555323-
A|---------5555555022240002-5555323-
D|-00000000-----------------5555323-

Pre-Verse (2nd time don't play last note)
E|--------------------------------------------------|
B|o------------------------------------------------o|
G|--------------------------------------------------|
D|--00000000-12121212121212-7-999-11-777-9-5555323--|
A|o-00000000-12121212121212-7-999-11-777-9-5555323-o|
D|--00000000-12121212121212-7-999-11-777-9-5555323--|

Verse x4
E|-------------------------------------
B|-------------------------------------
G|-------------------------------------
D|-000000000000000-55-5-55-5-55-5-55-5-
A|-000000000000000-55-5-55-5-55-5-55-5-
D|-000000000000000-55-5-55-5-55-5-55-5-
   pm----------------   pm   pm   pm
[ Tab from: http://www.guitartabs.cc/tabs/n/new_found_glory/its_been_a_summer_tab_ver_4.html ]
2nd Guitar x2 (comes in 3rd time)
E|----------------------------------
B|----------------------------------
G|----------------------------------
D|----------------------------------
A|-17171717-1616-1414-1616-14-12-10-
D|----------------------------------

Pre-Chorus x2
E|-------------------
B|-------------------
G|-------------------
D|-22222222-55555555-
A|-22222222-55555555-
D|-22222222-55555555-

Chorus x8        
E|------------
B|------------
G|------------
D|-00-22-5555-
A|-00-22-5555-
D|-00-22-5555-

Pre-Verse

Verse x4

Pre-Chorus x2

Chorus x8

Bridge x4
E|-----------------------------------
B|-----------------------------------
G|-----------------------------------
D|-0-0-0-0--2-2-2-2--5-5-5-5-5-5-5-5-
A|-0-0-0-0--2-2-2-2--5-5-5-5-5-5-5-5-
D|-0-0-0-0--2-2-2-2--5-5-5-5-5-5-5-5-
   
Clean
E|---------------------------------------------------
B|---------------------------------------------------
G|---------------------------------------------------
D|-------22----------55---5-------22----------55---5-
A|----22----22----55----5------22----22----55----5---
D|-22----------55------------2----------55-----------

Chorus x8

Outro
E|-------------------------------------------------------
B|-------------------------------------------------------
G|-------------------------------------------------------
D|-00000000-12121212121212-7-999-11-777-9-555532--555532-
A|-00000000-12121212121212-7-999-11-777-9-555532--555532-
D|-00000000-12121212121212-7-999-11-777-9-555532--555532-

E|---------------------------------------
B|---------------------------------------
G|---------------------------------------
D|-12121212121212-7-999-11-777-9-5555320-
A|-12121212121212-7-999-11-777-9-5555320-
D|-12121212121212-7-999-11-777-9-5555320-
Comments