New Found Glory - Its Been A Summer Chords & Tabs

 

Its Been A Summer Chords & Tabs

New Found Glory Chords & Tabs

Version: 3 Type: Tab 0 ratings
1 star 2 stars 3 stars 4 stars 5 stars
comments

Its Been A Summer Tab

-------------------------------------------------------------------------------
			     IT'S BEEN A SUMMER - New Found Glory
-------------------------------------------------------------------------------

Album: Sticks And Stones (2002)
Tabbed By: AnDy PaNNeLL (andypannell@anewfoundglory.net)
Notes: OK this is in drop 'd' tuning. It is (almost) perfect, it is done by ear
this is how my band plays it, it sounds great. If you can turn the music so 
it only goes to your right speaker for the first bar you can play with the 
drums it might seem useless but I quite like it :-)

Intro: GUITAR ONE

e|---------------------------------------------------------------------------|
B|---------------------------------------------------------------------------|
G|---------------------------------------------------------------------------|
D|---------------------------------------------------------------------------|
A|----------------5-5-5-5-5-5-5-5-\-2-2-2-4-0-0-0----------------------------|
D|0-0-0-0-0-0-0-0---------------------------------5-5-5-4-2-0----------------|

Intro: GUITAR TWO (comes in after guitar one has played intro once)

e|---------------------------------------------------------------------------|
B|---------------------------------------------------------------------------|
G|----------------7-7-7-7-7-7-7-7-\-4-4-4-6-2-2-2----------------------------|
D|0-0-0-0-0-0-0-0-7-7-7-7-7-7-7-7-\-4-4-4-6-2-2-2-5-5-5-4-2-0----------------|
A|0-0-0-0-0-0-0-0-5-5-5-5-5-5-5-5-\-2-2-2-4-0-0-0-5-5-5-4-2-0----------------|
D|0-0-0-0-0-0-0-0---------------------------------5-5-5-4-2-0----------------|

Verse: GUITAR ONE

e|---------------------------------------------------------------------------|
B|---------------------------------------------------------------------------|
G|---------------------------------------------------------------------------|
D|0-0-0-0-0-0-0-0-0-0-0-0-0-0-0-0-5-5-5-5-5-5-5-5-5-5-5-5-5-5-5-5------------|
A|0-0-0-0-0-0-0-0-0-0-0-0-0-0-0-0-5-5-5-5-5-5-5-5-5-5-5-5-5-5-5-5------------|
D|0-0-0-0-0-0-0-0-0-0-0-0-0-0-0-0-5-5-5-5-5-5-5-5-5-5-5-5-5-5-5-5------------|

Verse: GUITAR TWO (comes in after guitar one has played verse twice)
[ Tab from: http://www.guitartabs.cc/tabs/n/new_found_glory/its_been_a_summer_tab_ver_3.html ]
e|---------------------------------------------------------------------------|
B|---------------------------------------------------------------------------|
G|--7-----7-----7-----7-----7------------------------------------------------|
D|----7-----7-----7-----7-----7---5-5-5-5-5-5-5-5-5-5-5-5-5-5-5-5------------|
A|5-----5-----5-----5-----5-----5-5-5-5-5-5-5-5-5-5-5-5-5-5-5-5-5------------|
D|--------------------------------5-5-5-5-5-5-5-5-5-5-5-5-5-5-5-5------------|

Pre Chorus: BOTH GUITARS

e|---------------------------------------------------------------------------|
B|---------------------------------------------------------------------------|
G|---------------------------------------------------------------------------|
D|2--2--2--2--2--2--2--2--5--5--5--5--5--5--5--5-----------------------------|
A|2--2--2--2--2--2--2--2--5--5--5--5--5--5--5--5-----------------------------|
D|2--2--2--2--2--2--2--2--5--5--5--5--5--5--5--5-----------------------------|

Chorus: BOTH GUITARS

e|---------------------------------------------------------------------------|
B|---------------------------------------------------------------------------|
G|---------------------------------------------------------------------------|
D|0--0--2--2--5--5--5--5--5--5--5--5-----------------------------------------|
A|0--0--2--2--5--5--5--5--5--5--5--5-----------------------------------------|
D|0--0--2--2--5--5--5--5--5--5--5--5-----------------------------------------|

The intro also appears again half way through the song and at the end
The chorus also plays as a bridge with a pick scrape at the end
I tried to get the picking of the D chord in the verse kinda right but fiddle
around and you should get it to sound just right!

|----------------------------------------------------------------------|
| Any comments/corrections please email me them to:                    |
| andypannell@anewfoundglory.net                                       |
| I will tab any song from New Found Glory on request                  |
| Please leave my name on this tab if you intend to use it thank you   |
|----------------------------------------------------------------------|

===============================================================================
Comments