New Found Glory - It Never Snows In Florida Chords & Tabs

 

It Never Snows In Florida Chords & Tabs

New Found Glory Chords & Tabs

Version: 1 Type: Bass Tab 0 ratings
1 star 2 stars 3 stars 4 stars 5 stars
comments

It Never Snows In Florida Bass Tab

   
A New Found Glory- It Never Snows in Florida
By: Adam (http://www.geocities.com/pbnonline)

Intro and Chorus:
G|----------------|
D|----------------| 
A|-5>----2>-------|
E|----3>----3>-5>-| 

Verse:
G|-------------|
D|-------------| 
A|-5>----2>----|
E|----3>----3>-| 
[ Tab from: http://www.guitartabs.cc/tabs/n/new_found_glory/it_never_snows_in_florida_btab.html ]
Next Part:                                                                 
G|--------------------------------|
D|--------------------------------|
A|-5>----5--------5>----5----2-0--|
E|----3>---33-55-----3>---33------|

Next Part continued:                                                                 
G|------------------------------|
D|------------------------------|
A|5>----5----2-0--5>----5-------|
E|---3>---33---------3>---33-55-|

Verse 2:                          
G|--------------|
D|--------------|
A|----5>-2>-0>--|
E|-3>-----------|

End on:
A|-5

Figure out rythm for yourself, its not too hard.
Comments