New Found Glory - Id Kill To Fall Asleep Chords & Tabs

 

Id Kill To Fall Asleep Chords & Tabs

New Found Glory Chords & Tabs

Version: 1 Type: Tab 0 ratings
1 star 2 stars 3 stars 4 stars 5 stars
comments

Id Kill To Fall Asleep Tab

   
Song: I'd Kill To Fall Asleep
Artist: New Found Glory

Tabbed by: Mark Bradshaw



STANDARD TUNING

INTRO
(clean)
e[---10------10-----]
b[------10~-----10~-]
g[------------------]
d[------------------]
a[------------------]
E[------------------]

guitar 1
e[--------------------------------]
b[--------------------------------]
g[--------------------------------]
d[--------------------------------]
a[---0-4-0---4-0---4-0---4-0---2~-]
E[-0-.---.-0---.-0---.-0---.-0----]
   .       .     .     .     .
guitar 2
e[--------------------------------]
b[-----2-----2-----2-----2-----0~-]
g[---2---2-----2-----2-----2------]
d[-2-.---.-2-----2-----2-----2----]
a[-.-------.-----.-----.-----.----]
E[--------------------------------]
(very weird. but i think its right.you just have to make sure you do it fast and get 
 in the palm mutes or else its not gonna work very well)

VERSE
guitars 1 and 2
(do this alot)
e[-----]
b[-----]
g[-----]
d[-----]
a[-777-]
E[-555-]   
   ...
guitar 3
(repeat intro of guitar 1 with NO distortion)
guitar 4
(repeat intro of guitar 2 with NO distortion)

VERSE ENDING OF GUITARS 1 AND 2
e[-------------]
b[-------------]
g[-------------]
d[-------------]
a[-77777-x-x-x-]
E[-55555-x-x-x-]
[ Tab from: http://www.guitartabs.cc/tabs/n/new_found_glory/id_kill_to_fall_asleep_tab.html ]
PRE-CHORUS
guitars 1 and 2
e[---------------------------------------------------]
b[---------------------------------------------------]
g[---------------------------------------------------]
d[--4-4-4-4-4-4-2-2-2--------4-4-4-4-4-4-------2-2-2-]
a[--2-2-2-2-2-2-0-0-0-5-5-5--2-2-2-2-2-2-5-5-5-0-0-0-]
E[--------------------3-3-3--------------3-3-3-------]
guitar 3
e[---------------------------------------------------]
b[---------------------------------------------------]
g[-111111111111-9-9-9-7-7-7-111111111111-7-7-7-9-9-9-]
d[--x-x-x-x-x-x-x-x-x-x-x-x--x-x-x-x-x-x-x-x-x-x-x-x-]
a[--9-9-9-9-9-9-7-7-7-5-5-5--9-9-9-9-9-9-5-5-5-7-7-7-]
E[---------------------------------------------------]
CHORUS
(just repeat the second part of the intro)

REPEAT VERSE

REPEAT PRE-CHORUS

REPEAT CHORUS/INTRO

BRIDGE
e[-------------------------------------]
b[-------------------------------------]
g[-------------------------------------]
d[-66666666-77777777-------------------]
a[-44444444-55555555-55555555-55555555-]
E[-........-........-33333333-33333333-]                     
                     ........ ........
e[-----]
b[-----]
g[-----]
d[-----]
a[-5~~-]
E[-3~~-]

REPEAT PRE-CHORUS

REPEAT CHORUS

ENDING
just repeat the intro with:
e[-----------------]
b[-----------------]
g[-----------------]
d[-----------------]
a[-777---777---777-]
E[-555---555---555-]
   ...   ...   ...
Comments