New Found Glory - I Want It That Way Chords & Tabs

 

I Want It That Way Chords & Tabs

New Found Glory Chords & Tabs

Version: 1 Type: Tab 0 ratings
1 star 2 stars 3 stars 4 stars 5 stars
comments

I Want It That Way Tab


It’s pretty much all power chords.
The rhythm is really easy, just listen to the song.

Standard tuning (EADGBe)



Intro play this twice:
|-----------------------------------------------------------------------------
|------2----------------------3---------------0------------------------------
|----------2------2-------2------2----------------2-------------------------
|--------------4-------0------------------2-----------2----------------------
|--4----------------------------------0---------------------------------------
|--2---------------------------------------------------------------------------


Then play this 4 times:

|-----------------------------------------------------------------------------
|-----------------------------------------------------------------------------
|-----------------------------------------------------------------------------
|-----------------------------------------------------------------------------
|------------------5----7----------------------------------------------------
|----2------------------------------------------------------------------------



Then the main verse riff (palm muted):

|-----------------------------------------------------------------------------
|-----------------------------------------------------------------------------
|-----------7-----9---------------------------9-----------------------------
|----4------7-----9-------}(x3)---------4-----9-------7---------------------
|----4------5-----7---------------------4-----7-------7---------------------
|----2----------------------------------2-------------5----------------------


Chorus: 
[ Tab from: http://www.guitartabs.cc/tabs/n/new_found_glory/i_want_it_that_way_tab.html ]
|----------------------------------------------------------------------------------------
|----------------------------------------------------------------------------------------
|--7------------------7------------------7----9--------------9----------------------
|--7-----6-----4------7----6----4--------7----9---7-----4----9----7-----------------
|--5-----6-----4------5----6----4--------5----7---7-----4----7----7-----------------
|--------4-----2-----------4----2-----------------5-----2---------5-----------------


Play the main verse riff again.


Play chorus again.


Bridge (“now I can see that we’re fallin’ apart….”):


|---------------------------------------------------------------------------------------------------------
|----------------------------------------------------------------------------------------------------------
|-------------------------2---------------------------------------------7------9----------------------
|----7-------4-----2------2--------4-------------------------------4----7------9--------4------2-----
|----7-------4-----2------0--------4----------5--7-------5--7------4----5------7--------4------2-----
|----5-------2-----0---------------2------2-----------2------------2--------------------2------0-----
						                  |PM……………………………|


Then there’s a long pointless break thinggy.

Then the final chorus goes like this:


|---------------------------------------------------------------------------------
|---------------------------------------------------------------------------------
|---9-------------------9----------------9-----------------------4----------
|---9----8------6-------9----8----6------9---8---9-----6----4----4----------
|---7----8------6-------7----8----6------7---8---9-----6----4----2----------
|--------6------4------------6----4----------6---7-----4----2---------------


Outro is just:

|-----------------------------------------------------------------------------
|-----------------------------------------------------------------------------
|--------------4-------------------------------------------------------------
|---6-----4----4--------------------------------------------------------------
|---6-----4----2--------------------------------------------------------------
|---4-----2--------------------------------------------------------------------


That’s pretty much it.  Any questions or comments, please feel free to e-mail me at nojustno@hotmail.com
Comments