New Found Glory - I Dont Wanna Know Chords & Tabs

 

I Dont Wanna Know Chords & Tabs

New Found Glory Chords & Tabs

Version: 1 Type: Tab 0 ratings
1 star 2 stars 3 stars 4 stars 5 stars
comments

I Dont Wanna Know Tab

   
-------------------------------------------------------------------------------
                             New found glory - i dont wanna know
-------------------------------------------------------------------------------
Tabbed by: Tom Kyle
Email: Tombotownusa@hotmail.com
[ Tab from: http://www.guitartabs.cc/tabs/n/new_found_glory/i_dont_wanna_know_tab.html ]
Tuning:
Inro - guitar 1
e|--------------------------------------------------|
B|------0-------0-------0-------0-------0-----------|
G|--2-0---0-2-0---0-2-0---0-2-0---0-2-0---0---------|
D|--------------------------------------------------|
A|--------------------3---3-3-3---3-3---------------|
E|--3-3---3-3-3---3-3-----------------3---3---------|
Intro - guitar 2
e|--------------------------------------------------------------------------|
B|--------------------------------------------------------------------------|
G|----------5-5-5-5---------5-5-5-5-----------------------------------------|
D|--5-5-5-5-5-5-5-5-2-2-2-2-5-5-5-5-5---------------------------------------|
A|--5-5-5-5-3-3-3-3-2-2-2-2-3-3-3-3-5---------------------------------------|
E|--3-3-3-3---------0-0-0-0---------3---------------------------------------|
Chorus - guitar 1
e|--------------------------------------------------------------------------|
B|--------------------------------------------------------------------------|
G|----------5-5-5-5---------5-5-5-5-----------------------------------------|
D|--5-5-5-5-5-5-5-5-2-2-2-2-5-5-5-5-5---------------------------------------|
A|--5-5-5-5-3-3-3-3-2-2-2-2-3-3-3-3-5---------------------------------------|
E|--3-3-3-3---------0-0-0-0---------3---------------------------------------|
MIddle
e|--------------------------------------------------------------------------|
B|--------------------------------------------------------------------------|
G|--5-5-5-5-5-5-5-5-7-7-7-7-7-7-7-7-----------------------------------------|
D|--5-5-5-5-5-5-5-5-7-7-7-7-7-7-7-7--x2-------------------------------------|
A|--3-3-3-3-3-3-3-3-5-5-5-5-5-5-5-5-----------------------------------------|
E|--------------------------------------------------------------------------|

e|--------------------------------------------------------------------------|
B|--------------------------------------------------------------------------|
G|--5-5-5-5-5-5-5-5-7-7-7-----------5-5-5-5-5-5-5-5-7-7-7-7-7-7-7-7---------|
D|--5-5-5-5-5-5-5-5-7-7-7-7-7-7-7-7-5-5-5-5-5-5-5-5-7-7-7-7-7-7-7-7-5-------|
A|--3-3-3-3-3-3-3-3-5-5-5-7-7-7-7-7-3-3-3-3-3-3-3-3-5-5-5-5-5-5-5-5-5-------|
E|------------------------5-5-5-5-5---------------------------------3-------|


| /  slide up
| \  slide down
| h  hammer-on
| p  pull-off
| ~  vibrato
| +  harmonic
| x  Mute note
===============================================================================
Comments