New Found Glory - I Dont Wanna Know Chords & Tabs

 

I Dont Wanna Know Chords & Tabs

New Found Glory Chords & Tabs

Version: 1 Type: Bass Tab 0 ratings
1 star 2 stars 3 stars 4 stars 5 stars
comments

I Dont Wanna Know Bass Tab

   
I DON'T WANNA KNOW (Bassline)

                         As recorded by New Found Glory
                         (From the 2004 Album CATALYST)

Words and Music by New Found Glory
Arranged by New Found Glory
Transcribed by cooldude41


Gtr I (E A D G) - 'Untitled'

 Introduction
  Q=82
 4/4
  Gtr I
  Wx4
|--------|
|--------|
|--------|
|--------|


  Q  E E Q  E E   Q  E E Q  E E   Q  E E Q  E E   Q  E E Q  E E
|---------------|---------------|---------------|---------------||
|---------------|---------------|---------------|---------------||
|--------3--3-3-|--------3--3-3-|--------3--3-3-|--------3--3-3-||
|-3--3-3--------|-0--0-0--------|-3--3-3--------|-0--0-0--------||


   Verse
    E E E E E E E E   E E E E E E E E   E E E E E E E E   E E E E E E E E
||------------------|-----------------|-----------------|------------------|
||o-----------------|-----------------|-----------------|------------------|
||o-----------------|-3-3-3-3-3-3-3-3-|-----------------|-3-3-3-3-3-3-3-3--|
||--3-3-3-3-3-3-3-3-|-----------------|-3-3-3-3-3-3-3-3-|------------------|


  E E E E E E E E   E E E E E E E E   E E E E E E E E   E E E E E E E E
|-----------------|-----------------|-----------------|-----------------|
|-----------------|-----------------|-----------------|-----------------|
|-----------------|-3-3-3-3-3-3-3-3-|-----------------|-3-3-3-3-3-3-3-3-|
|-3-3-3-3-3-3-3-3-|-----------------|-3-3-3-3-3-3-3-3-|-----------------|


                         Chorus
  H    H      W           Q  E E Q  E E   Q  E E Q  E E
|-----------|----------||---------------|---------------|
|-----------|----------||---------------|---------------|
|-7----5----|-3--------||--------3--3-3-|--------3--3-3-|
|-----------|----------||-3--3-3--------|-0--0-0--------|


  Q  E E Q  E E   Q  E E Q  E E   Q  E E Q  E E   Q  E E Q  E E
|---------------|---------------|---------------|---------------|
|---------------|---------------|---------------|---------------|
|--------3--3-3-|--------3--3-3-|--------3--3-3-|--------3--3-3-|
|-3--3-3--------|-0--0-0--------|-3--3-3--------|-0--0-0--------|


  1.                               2.
  Q  E E Q  E E   Q  E E Q  E E     Q  E E Q  E E   Q  E E Q  E E
|---------------|----------------||---------------|---------------|
|---------------|---------------o||---------------|---------------|
|--------3--3-3-|--------3--3-3-o||--------3--3-3-|--------3--3-3-|
|-3--3-3--------|-0--0-0---------||-3--3-3--------|-0--0-0--------|

[ Tab from: http://www.guitartabs.cc/tabs/n/new_found_glory/i_dont_wanna_know_btab.html ]
   Interlude
    E E E S S E E E E   E E E S S E E E E
||--------------------|-------------------|
||o-------------------|-------------------|
||o-3-3-3-3-3-3-3-3-3-|-5-5-5-5-5-5-5-5-5-|
||--------------------|-------------------|


  E E E S S E E E E   E E E S S E E E E
|-------------------|---------------------||
|-------------------|--------------------o||
|-3-3-3-3-3-3-3-3-3-|-5-5-5-5-5-5-5-5-5--o||
|-------------------|---------------------||


  W          +W           +W           +W
|----------|------------|------------|--------|
|----------|------------|------------|--------|
|----------|------------|------------|--------|
|-3--------|-(3)--------|-(3)--------|-(3)----|


   Last Chorus
    Q  E E Q  E E   Q  E E Q  E E   Q  E E Q  E E   Q  E E Q  E E
||----------------|---------------|---------------|----------------|
||o---------------|---------------|---------------|----------------|
||o--------3--3-3-|--------3--3-3-|--------3--3-3-|--------3--3-3--|
||--3--3-3--------|-0--0-0--------|-3--3-3--------|-0--0-0---------|


  Q  E E Q  E E   Q  E E Q  E E   Q  E E Q  E E   Q  E E Q  E E
|---------------|---------------|---------------|----------------||
|---------------|---------------|---------------|---------------o||
|--------3--3-3-|--------3--3-3-|--------3--3-3-|--------3--3-3-o||
|-3--3-3--------|-0--0-0--------|-3--3-3--------|-0--0-0---------||


  W          +W           +W           +W
|----------|------------|------------|--------*|
|----------|------------|------------|--------*|
|----------|------------|------------|--------*|
|-3--------|-(3)--------|-(3)--------|-(3)----*|


Duration Legend
---------------
W - whole; H - half; Q - quarter; E - 8th; S - 16th; T - 32nd; X - 64th; a - acciaccatura
+ - note tied to previous; . - note dotted; .. - note double dotted
Uncapitalized letters represent notes that are staccato (1/2 duration)
Irregular groupings are notated above the duration line
Duration letters will always appear directly above the note/fret number it represents the
duration for.  Duration letters with no fret number below them represent rests.  Multi-
bar rests are notated in the form Wxn, where n is the number of bars to rest for.  Low
melody durations appear below the staff

Tablature Legend
----------------
 h   - hammer-on
 p   - pull-off
 b   - bend
 pb  - pre-bend
 r   - bend release (if no number after the r, then release immediately)
 /\  - slide into or out of (from/to "nowhere")
 s   - legato slide
 S   - shift slide
  - natural harmonic
[n]  - artificial harmonic
n(n) - tapped harmonic
 ~   - vibrato
 tr  - trill
 T   - tap
 TP  - trem. picking
 PM  - palm muting
\n/  - tremolo bar dip; n = amount to dip
 \n  - tremolo bar down
 n/  - tremolo bar up
/n\  - tremolo bar inverted dip
 =   - hold bend; also acts as connecting device for hammers/pulls
 <>  - volume swell (louder/softer)
 x   - on rhythm slash represents muted slash
 o   - on rhythm slash represents single note slash

Misc Legend
-----------
 |  - bar
||  - double bar
||o - repeat start
o|| - repeat end
*|  - double bar (ending)
 :  - bar (freetime)
 $  - Segno
 &  - Coda
Tempo markers -  = BPM(8/16=s8/s16), where s8 = swing 8ths, s16 = swing 16ths
Comments