New Found Glory - I Do It For You Chords & Tabs

 

I Do It For You Chords & Tabs

New Found Glory Chords & Tabs

Version: 1 Type: Tab 0 ratings
1 star 2 stars 3 stars 4 stars 5 stars
comments

I Do It For You Tab

New Found Glory - Everything I Do
[ Tab from: http://www.guitartabs.cc/tabs/n/new_found_glory/i_do_it_for_you_tab.html ]
Just let the chords ring for the first verse, then play again, faster.
Listen to the song for timing.
E |--------------------------------------|-----------------------|
B |--------------------------------------|-----------------------|
G |--6---------8----3---3--6---6--8------|--6-------------6--8---|
D |--6---------8----3---3--6---6--8------|--6----6--4-44--6--8---|
A |--4---------6----1---1--4---4--6------|--4----6--4-44--4--6---|
E |--------------------------------------|-------4--2-22---------|
...eyes n u'll see what u mean to me   ... heart

E |-----------------------|-----------------------|
B |-----------------------|-----------------------|
G |--8--6-----------------|--8--6-----------------|
D |--8--6--6--3-----------|--8--6--6--3-----------|
A |--6--4--6--3-----------|--6--4--6--3-----------|
E |--------4--1-----------|--------4--1-----------|

E |-----------------------|
B |-----------------------|
G |--6-----6--------------|
D |--6--6--6--------------|
A |--4--6--4--------------|
E |-----4-----------------|
Comments