New Found Glory - Hit Or Miss Chords & Tabs

 

Hit Or Miss Chords & Tabs

New Found Glory Chords & Tabs

Version: 5 Type: Tab 0 ratings
1 star 2 stars 3 stars 4 stars 5 stars
comments

Hit Or Miss Tab

BY: MICHELLE GUSHIKEN
aRTIST: NEW FOUND GLORY
SONG; HIT OR MISS

[ Tab from: http://www.guitartabs.cc/tabs/n/new_found_glory/hit_or_miss_tab_ver_5.html ]
-------------------------------------------------
-------------------------------------------------
--9--9-9-9---------------------------------------
--9--9-9-9--9--9-9-9--11--11-11-11---7--7-7-7----
--7--7-7-7--9--9-9-9--11--11-11-11---7--7-7-7----
------------7--7-7-7--9---9--9--9----5--5-5-5----

------------------------------------------
------------------------------------------
--9--9-9-9---11-11-11-11--13-13-13-13-----
--9--9-9-9---11-11-11-11--13-13-13-13-----
--7--7-7-7---9--9--9--9---11-11-11-11-----
------------------------------------------
Comments