New Found Glory - Hit Or Miss Chords & Tabs

 

Hit Or Miss Chords & Tabs

New Found Glory Chords & Tabs

Version: 5 Type: Bass Tab 0 ratings
1 star 2 stars 3 stars 4 stars 5 stars
comments

Hit Or Miss Bass Tab

New Found Glory
Hit Or Miss

Tabbed by: Tiffany King
AIM:InVaDeRzIm1343

Standard Tunning

Intro
G----------------------------------------
D----------------------------------------
A-7~----7-7-7-7--------------------------
E---------------7-7-7-7-9-9-9-9-5-5-5-5--

play 3 times			4th time
G--------------------------	G---------
D--------------------------	D---------
A-7-7-7--------------------	A-7-------
E-------7-7-7-9-9-9-5-5-5--	E---7-5~--

Verse  (the needle on my record player...)
G------------------------------------------------------
D------------------------------------------------------  
A-7-7-7--7-7-7-----------------------------------------
E--------------7-7-7--7-7-7-9-9-9--9-9-9-5-5-5--5-5-5--

G---------------------------------------------------
D---------------------------------------------------  
A-7-7-7--7-7-7--------------------------------------
E--------------7-7-7--7-7-7-9-9-9--9-9-9-5-5-5-5-5--

Pre-Chorus  (no more long rides homw...)
G--------------------------------------------------
D--------------------------------------------------  X2
A-7-7-7-7-7-7--------------------------------------
E-------------7-7-7-7-7-7-9-9-9-9-9-9-5-5-5-5-5-5--

(remember the time we wrote...)
G--------------------------------------------------
D--------------------------------------------------  X2
A-7-7-7-------------------7-7-7--------------------
E-------7-7-7-9-9-9-9-9-9-------7-7-7-5-5-5-5-5-5--

Chorus  (have I waited to long...)  play X8	
G--------------------------			
D--------------------------			
A-7-7-7--------------------			
E-------7-7-7-9-9-9-5-5-5--

play 4th		play 8th time
G----------------	G---------
D----------------	D---------
A-7--------------	A-7-------
E---7-5-5-5-5-5--	E---7-5~--

Verse  (maybe its for the best...)
G------------------------------------------------------
D------------------------------------------------------  
A-7-7-7--7-7-7-----------------------------------------
E--------------7-7-7--7-7-7-9-9-9--9-9-9-5-5-5--5-5-5--
[ Tab from: http://www.guitartabs.cc/tabs/n/new_found_glory/hit_or_miss_btab_ver_5.html ]
G---------------------------------------------------
D---------------------------------------------------  
A-7-7-7--7-7-7--------------------------------------
E--------------7-7-7--7-7-7-9-9-9--9-9-9-5-5-5-5-5--

Pre-Chorus  (no more long rides homw...)
G--------------------------------------------------
D--------------------------------------------------  X2
A-7-7-7-7-7-7--------------------------------------
E-------------7-7-7-7-7-7-9-9-9-9-9-9-5-5-5-5-5-5--

(remember the time we wrote...)
G--------------------------------------------------
D--------------------------------------------------  X2
A-7-7-7-------------------7-7-7--------------------
E-------7-7-7-9-9-9-9-9-9-------7-7-7-5-5-5-5-5-5--

Chorus  (have I waited to long...)  play X8	
G--------------------------			
D--------------------------			
A-7-7-7--------------------			
E-------7-7-7-9-9-9-5-5-5--

play 4th		play 8th time
G----------------	G---------
D----------------	D---------
A-7--------------	A-7-------
E---7-5-5-5-5-5--	E---7-5~--

Interlude  (how many times I'v tried...)
G------------------------------------------
D------------------------------------------  X3
A-7-7-7-7-7--------------------------------
E-----------7-7-7-7-7-9-9-9-9-9-5-5-5-5-5--

G---------------------------------------
D---------------------------------------
A-7-7-7-7-7---------------------7-------
E-----------7-7-7-7-7-9-9-9-9-9---7-5~--

Bass Solo
G--------------------------
D--------------------------  X3
A-7-7-7--------------------
E-------7-7-7-9-9-9-5-5-5--

G----------------------------------
D----------------------------------
A-7-7-7-7--------------------------
E---------7-7-7-7-9-9-9-9-5-5-5-5--

Chorus  (have I waited to long...)
G--------------------------			
D--------------------------			
A-7-7-7--------------------			
E-------7-7-7-9-9-9-5-5-5--

play 4th		play 8th time
G----------------	G---------
D----------------	D---------
A-7--------------	A-7-------
E---7-5-5-5-5-5--	E---7-5~--

Thats it, this song is one of thier best songs. Pretty easy to play.
This tab is 100% correct. Have Fun!
Please rate this tab, Thanks.
Comments