New Found Glory - Head On Collision Chords & Tabs

 

Head On Collision Chords & Tabs

New Found Glory Chords & Tabs

Version: 5 Type: Tab 2 ratings
1 star 2 stars 3 stars 4 stars 5 stars
comments

Head On Collision Tab

   
title: head on collion
artist: a new found glory

standard tuning

this is my first tab.
this is a great song from a new found glory's cd sticks and stones
intro:

e-|---------------------------------------------------------------------------------------------
b-|---------------------------------------------------------------------------------------------
g-|----------------------------------2-2-2-2-2-2-4-4-4-4-4-4-4-4-7-7-7-6-6-6-7-7-7-6-6-6-7-7-6-6
d-|----------------------------------2-2-2-2-2-2-4-4-4-4-4-4-4-4-7-7-7-6-6-6-7-7-7-6-6-6-7-7-6-6
a-|--5-4-5-7-5-4-5-4-5-4-5-7-5-4-5-4-0-0-0-0-0-0-2-2-2-2-2-2-2-2-5-5-5-4-4-4-5-5-5-4-4-4-5-5-4-4
E-|---------------------------------------------------------------------------------------------

--------------------------------------------------------------------------------------------|
--------------------------------------------------------------------------------------------|
2-2-2-2-2-2-4-4-4-4-4-4-4-4-7-7-7-6-6-6-7-7-7-6-6-6-7-7-6-6---------------------------------|
2-2-2-2-2-2-4-4-4-4-4-4-4-4-7-7-7-6-6-6-7-7-7-6-6-6-7-7-6-6---------------------------------|
0-0-0-0-0-0-2-2-2-2-2-2-2-2-5-5-5-4-4-4-5-5-5-4-4-4-5-5-4-4-5-4-5-7-5-4-5-4-5-4-5-7-5-4-5-4-|
--------------------------------------------------------------------------------------------|

verse:

e-|------------------------------------------------------------------------------
b-|------------------------------------------------------------------------------
g-|------------------------------------------------------------------------------
d-|-2----2-2----------------2----2-2----------------2----2--2-2--2-2-2--2-2-2----
a-|-0----0-0----4----4-4----0----0-0----4----4-4----0----0--0-0--0-0-0--0-0-0----
E-|-------------2----2-2----------------2----2-2---------------------------------

------------------------------------------------------------------------------------
------------------------------------------------------------------------------------
------------------------------------------------------------------------------------
-----------------------------2----2--2-2--2-2-2--2-2-2------------------------------
4----4--4-4--4-4-4--4-4-4----0----0--0-0--0-0-0--0-0-0----4----4--4-4--4-4-4--4-4-4-
2----2--2-2--2-2-2--2-2-2---------------------------------2----2--2-2--2-2-2--2-2-2-

Chorus:


e-|--------------------------------------------------------------------------------------------
b-|--------------------------------------------------------------------------------------------
g-|--------------------------------2-2-2-2-2-2-4-4-4-4-4-4-4-4-7-7-7-6-6-6-7-7-7-6-6-6-7-7-6-6-     
d-|2-2-2-2-2-2-2-2-2-2-2-2-2-2-2-2-2-2-2-2-2-2-4-4-4-4-4-4-4-4-7-7-7-6-6-6-7-7-7-6-6-6-7-7-6-6-
a-|2-2-2-2-2-2-2-2-2-2-2-2-2-2-2-2-0-0-0-0-0-0-2-2-2-2-2-2-2-2-5-5-5-4-4-4-5-5-5-4-4-4-5-5-4-4-
E-|0-0-0-0-0-0-0-0-0-0-0-0-0-0-0-0-------------------------------------------------------------

------------------------------------------------------------
------------------------------------------------------------
2-2-2-2-2-2-4-4-4-4-4-4-4-4-7-7-7-6-6-6-7-7-7-6-6-6-7-7-6-6-
2-2-2-2-2-2-4-4-4-4-4-4-4-4-7-7-7-6-6-6-7-7-7-6-6-6-7-7-6-6-
0-0-0-0-0-0-2-2-2-2-2-2-2-2-7-7-7-6-6-6-7-7-7-6-6-6-7-7-6-6-
------------------------------------------------------------

------------------------------------------------------------
------------------------------------------------------------
2-2-2-2-2-2-4-4-4-4-4-4-4-4-7-7-7-6-6-6-7-7-7-6-6-6-7-7-6-6-
2-2-2-2-2-2-4-4-4-4-4-4-4-4-7-7-7-6-6-6-7-7-7-6-6-6-7-7-6-6-
0-0-0-0-0-0-2-2-2-2-2-2-2-2-7-7-7-6-6-6-7-7-7-6-6-6-7-7-6-6-
------------------------------------------------------------

------------------------------------------------------------|
------------------------------------------------------------|
2-2-2-2-2-2-4-4-4-4-4-4-4-4---------------------------------|
2-2-2-2-2-2-4-4-4-4-4-4-4-4---------------------------------|
0-0-0-0-0-0-2-2-2-2-2-2-2-2-5-4-5-7-5-4-5-4-5-4-5-7-5-4-5-4-|
------------------------------------------------------------|


Chorus:


e-|--------------------------------------------------------------------------------------------
b-|--------------------------------------------------------------------------------------------
g-|--------------------------------2-2-2-2-2-2-4-4-4-4-4-4-4-4-7-7-7-6-6-6-7-7-7-6-6-6-7-7-6-6-     
d-|2-2-2-2-2-2-2-2-2-2-2-2-2-2-2-2-2-2-2-2-2-2-4-4-4-4-4-4-4-4-7-7-7-6-6-6-7-7-7-6-6-6-7-7-6-6-
a-|2-2-2-2-2-2-2-2-2-2-2-2-2-2-2-2-0-0-0-0-0-0-2-2-2-2-2-2-2-2-5-5-5-4-4-4-5-5-5-4-4-4-5-5-4-4-
E-|0-0-0-0-0-0-0-0-0-0-0-0-0-0-0-0-------------------------------------------------------------

------------------------------------------------------------
------------------------------------------------------------
2-2-2-2-2-2-4-4-4-4-4-4-4-4-7-7-7-6-6-6-7-7-7-6-6-6-7-7-6-6-
2-2-2-2-2-2-4-4-4-4-4-4-4-4-7-7-7-6-6-6-7-7-7-6-6-6-7-7-6-6-
0-0-0-0-0-0-2-2-2-2-2-2-2-2-7-7-7-6-6-6-7-7-7-6-6-6-7-7-6-6-
------------------------------------------------------------

------------------------------------------------------------
------------------------------------------------------------
2-2-2-2-2-2-4-4-4-4-4-4-4-4-7-7-7-6-6-6-7-7-7-6-6-6-7-7-6-6-
2-2-2-2-2-2-4-4-4-4-4-4-4-4-7-7-7-6-6-6-7-7-7-6-6-6-7-7-6-6-
0-0-0-0-0-0-2-2-2-2-2-2-2-2-7-7-7-6-6-6-7-7-7-6-6-6-7-7-6-6-
------------------------------------------------------------
[ Tab from: http://www.guitartabs.cc/tabs/n/new_found_glory/head_on_collision_tab_ver_5.html ]
------------------------------------------------------------|
------------------------------------------------------------|
2-2-2-2-2-2-4-4-4-4-4-4-4-4---------------------------------|
2-2-2-2-2-2-4-4-4-4-4-4-4-4---------------------------------|
0-0-0-0-0-0-2-2-2-2-2-2-2-2-5-4-5-7-5-4-5-4-5-4-5-7-5-4-5-4-|
------------------------------------------------------------|

solo

e-|------------------------------------------------------------------
b-|-----------------5------------------------------------------------
g-|---------6---------------6---6h7h6--------------------------------
d-|-----7-------7-------7-----------------7---9---7-------6-7----6-7-
a-|-0-0---0---0---0---0---0---0-------7-7---7---7---7-5-5-----7-7----
E-|------------------------------------------------------------------

e-|------------------------------------------------------------------
b-|-----------------5------------------------------------------------
g-|---------6---------------6---6h7h6--------------------------------
d-|-----7-------7-------7-----------------7---9---7-------6-7----6-7-
a-|-0-0---0---0---0---0---0---0-------7-7---7---7---7-5-5-----7-7----
E-|------------------------------------------------------------------

e-|------------------------------------------------------------------
b-|-----------------5------------------------------------------------
g-|---------6---------------6---6h7h6--------------------------------
d-|-----7-------7-------7-----------------7---9---7-------6-7----6-7-
a-|-0-0---0---0---0---0---0---0-------7-7---7---7---7-5-5-----7-7----
E-|------------------------------------------------------------------

e-|------------------------------------------------------------------
b-|-----------------5------------------------------------------------
g-|---------6---------------6---6h7h6--------------------------------
d-|-----7-------7-------7-----------------7---9---7-------6-7----6-7-
a-|-0-0---0---0---0---0---0---0-------7-7---7---7---7-5-5-----7-7----
E-|------------------------------------------------------------------

e-|-----------------------------------------------------
b-|-----------------------------------------------------
g-|-----------------------------------------------------
d-|---------6-7-----6-7---------------------6-7-----6-7-
a-|-----5-5-----7-7---------------------5-5-----7-7-----
E-|-----------------------------------------------------

chorus:

e-|--------------------------------------------------------------------------------------------
b-|--------------------------------------------------------------------------------------------
g-|--------------------------------2-2-2-2-2-2-4-4-4-4-4-4-4-4-7-7-7-6-6-6-7-7-7-6-6-6-7-7-6-6-     
d-|2-2-2-2-2-2-2-2-2-2-2-2-2-2-2-2-2-2-2-2-2-2-4-4-4-4-4-4-4-4-7-7-7-6-6-6-7-7-7-6-6-6-7-7-6-6-
a-|2-2-2-2-2-2-2-2-2-2-2-2-2-2-2-2-0-0-0-0-0-0-2-2-2-2-2-2-2-2-5-5-5-4-4-4-5-5-5-4-4-4-5-5-4-4-
E-|0-0-0-0-0-0-0-0-0-0-0-0-0-0-0-0-------------------------------------------------------------

------------------------------------------------------------
------------------------------------------------------------
2-2-2-2-2-2-4-4-4-4-4-4-4-4-7-7-7-6-6-6-7-7-7-6-6-6-7-7-6-6-
2-2-2-2-2-2-4-4-4-4-4-4-4-4-7-7-7-6-6-6-7-7-7-6-6-6-7-7-6-6-
0-0-0-0-0-0-2-2-2-2-2-2-2-2-7-7-7-6-6-6-7-7-7-6-6-6-7-7-6-6-
------------------------------------------------------------

------------------------------------------------------------
------------------------------------------------------------
2-2-2-2-2-2-4-4-4-4-4-4-4-4-7-7-7-6-6-6-7-7-7-6-6-6-7-7-6-6-
2-2-2-2-2-2-4-4-4-4-4-4-4-4-7-7-7-6-6-6-7-7-7-6-6-6-7-7-6-6-
0-0-0-0-0-0-2-2-2-2-2-2-2-2-7-7-7-6-6-6-7-7-7-6-6-6-7-7-6-6-
------------------------------------------------------------

------------------------------------------------------------|
------------------------------------------------------------|
2-2-2-2-2-2-4-4-4-4-4-4-4-4---------------------------------|
2-2-2-2-2-2-4-4-4-4-4-4-4-4---------------------------------|
0-0-0-0-0-0-2-2-2-2-2-2-2-2-5-4-5-7-5-4-5-4-5-4-5-7-5-4-5-4-|
------------------------------------------------------------|

outro:

e-|-----------------------------------
b-|-----------------5-----------------
g-|---------6---------------6---6h7h6-
d-|-----7-------7-------7-------------
a-|-0-0---0---0---0---0---0---0-------
E-|-----------------------------------

e-|-----------------------------------
b-|-----------------5-----------------
g-|---------6---------------6---6h7h6-
d-|-----7-------7-------7-------------
a-|-0-0---0---0---0---0---0---0-------
E-|-----------------------------------

e-|-----------------------------------
b-|-----------------5-----------------
g-|---------6---------------6---6h7h6-
d-|-----7-------7-------7-------------
a-|-0-0---0---0---0---0---0---0-------
E-|-----------------------------------

e-|-----------------------------------
b-|-----------------5-----------------
g-|---------6---------------6---6h7h6-
d-|-----7-------7-------7-------------
a-|-0-0---0---0---0---0---0---0-------
E-|-----------------------------------

e-|-----------------------------------
b-|-----------------5-----------------
g-|---------6---------------6---6h7h6-
d-|-----7-------7-------7-------------
a-|-0-0---0---0---0---0---0---0-------
E-|-----------------------------------

e-|-----------------------------------
b-|-----------------5-----------------
g-|---------6---------------6---6h7h6-
d-|-----7-------7-------7-------------
a-|-0-0---0---0---0---0---0---0-------
E-|-----------------------------------

-------------------------------------------------------------|
-------------------------------------------------------------|
2-2-2-2-----4-4-4-4-4-4-4-4---------------------------------2|
2-2-2-2-----4-4-4-4-4-4-4-4---------------------------------2|
0-0-0-0-----2-2-2-2-2-2-2-2-5-4-5-7-5-4-5-4-5-4-5-7-5-4-5-4-0|
-------------------------------------------------------------|

have fun
if any comments please email at dragonslayer215@yahoo.com
Comments