New Found Glory - Head On Collision Chords & Tabs

 

Head On Collision Chords & Tabs

New Found Glory Chords & Tabs

Version: 2 Type: Tab 0 ratings
1 star 2 stars 3 stars 4 stars 5 stars
comments

Head On Collision Tab

   
Artist:New Found Glory
Album:Sticks And Stones
Song:Head On Collision(solo/bridge type thing)
Tabbed by Angusyoungfan No really i did actually tab it :)

Hopefully this is sounds like i think it sounds great but if you think theres anything wrong with it  e mail me at AngusYoungWannabe@hotmail.com :) thanks
Ive looked about at tabs for this song and the bridge seems to be wrong watch il get it wrong now lol

You shouldnt find the bridge too hard to play the only problem you may have is with the palm mute when
you have to mute the lowest string and then take off for the other notes but apart from that its
fairly simple have fun :) 

h=Hammer on
p=Pull off
...=Palm mute


The 2 00's that are in brackets are optional u can either play the 00  or play it at the 7th fret on that the same string either way it sounds great 
[ Tab from: http://www.guitartabs.cc/tabs/n/new_found_glory/head_on_collision_tab_ver_2.html ]
E|-------------------------------------------------------------------------------------------
B|--------------------------------------------------------------------------------------------
G|----------6--------9------------------------------------------------------------------------
D|-----7--------7---------7---6---6h7p6-----7----9----7-------6h7-------6h7--------------------------
A|-0-0---0----0---0----0----0---0--------77---7-----7-----55--------(00)-------------------------
E|-----------------------------------------------------------------------------------------
 .....   .    .   .    .    .   .        ..   .     .     ..         ..


oh yeah ill stick this on here too
HIT OR MISS INTRO
 Im sure thats how its played as on conan he doenst seem to move his hand about the fret oar that much its the other guitarist that plays powerchords  ok the only trouble you will have with this intro is when you have to keep your fingers on the 99 and put ure index on the 5th fret thats a lil tricky to begin with but fairly simple once you get the hang of it anyway im finished ok enjoy :)
E|-------------------------------------
B|-------------------------------------
G|--99-9--99-9--99-9--99-9-------------
D|--99-9--99-9--99-9--99-9-------------
A|--77-7--xx-x--xx-x--xx-x-------------
E|--------77-7--99-9--55-5-------------


If ya need anymore punk riffs or full songs tabbed just get in AIM me iownaguitar3142 or msn messenger AngusYoungwannabe@hotmail.com

or find me here at GTU Angusyoungfan :)

C ya 
Comments