New Found Glory - Failures Not Flattering Chords & Tabs

 

Failures Not Flattering Chords & Tabs

New Found Glory Chords & Tabs

Version: 3 Type: Tab 0 ratings
1 star 2 stars 3 stars 4 stars 5 stars
comments

Failures Not Flattering Tab

------------------------------------------------------------------------
FAILURES NOT FLATTERING - New Found Glory
------------------------------------------------------------------------
Tabbed by: Stephen Adams
Email: bigsteve0788@aol.com

Tuning:Drop D
Mute: *
Slide: /

Intro: What's your problem...
e|------------------------------------------------------------|
B|------------------------------------------------------------|
G|-777777-----------------------------------------------------|
D|-xxxxx7-55555555-99999-77777-00005--------------------------|
A|-555555-55555555-99999-77777-00005--------------------------|
E|--------55555555-99999-77777-00005--------------------------|
                               ****                  

Intro Cont.
e|------------------------------------------------------------|
B|------------------------------------------------------------|
G|-777777-----------------------------------------------------|
D|-xxxxx7-55555555-99999-7------------------------------------|
A|-555555-55555555-99999-7------------------------------------|
E|--------55555555-99999-7------------------------------------|

Play with the piano thing:
e|------------------------------------------------------------|
B|------------------------------------------------------------|
G|-777777-----------------------------------------------------|x2
D|-777777-555555-222222-555555--------------------------------|
A|-555555-555555-222222-555555--------------------------------|
E|--------555555-222222-555555--------------------------------|

Verse: (palm mute)
e|------------------------------------------------------------|
B|------------------------------------------------------------|
G|-77777777---------------------------------------------------|x2
D|-77777777-55555555-999-777-55555555-------------------------|
A|-55555555-55555555-999-777-55555555-------------------------|
E|----------55555555-999-777-55555555-------------------------|

Verse Cont.   
e|------------------------------------------------------------|
B|------------------------------------------------------------|
G|-777777-----------------------------------------------------|x2
D|-777777-555555-999-777-555555-------------------------------|
A|-555555-555555-999-777-555555-------------------------------|
E|--------555555-999-777-555555-------------------------------|
   *** *  *** *          *** *







Pre Chorus: Ah do hope...
e|------------------------------------------------------------|
B|------------------------------------------------------------|
G|------------------------------------------------------------|
D|-9999999-5-7-9999999----------------------------------------|
A|-9999999-5-7-9999999----------------------------------------|
E|-9999999-5-7-9999999----------------------------------------|
[ Tab from: http://www.guitartabs.cc/tabs/n/new_found_glory/failures_not_flattering_tab_ver_3.html ]
Chorus:
e|------------------------------------------------------------|
B|------------------------------------------------------------|
G|-777777-----------------------------------------------------|
D|-xxxxx7-55555555-99999-77777-00005--------------------------|
A|-555555-55555555-99999-77777-00005--------------------------|
E|--------55555555-99999-77777-00005--------------------------|
                               ****
Chorus Cont.
e|------------------------------------------------------------|
B|------------------------------------------------------------|
G|-777777-----------------------------------------------------|
D|-xxxxx7-55555555-99999-77777777-----------------------------|
A|-555555-55555555-99999-77777777-----------------------------|
E|--------55555555-99999-77777777-----------------------------|

1st Bridge:
e|------------------------------------------------------------|
B|------------------------------------------------------------|
G|-7/9-999-777-111-7/9----------------------------------------|x3
D|-x-x-xxx-xxx-xxx-x-x----------------------------------------|
A|-5/7-777-555-999-5/7----------------------------------------|
E|------------------------------------------------------------|

1st Bridge Cont.
e|------------------------------------------------------------|
B|------------------------------------------------------------|
G|-7/9-999-7--------------------------------------------------|
D|-x-x-xxx-x--------------------------------------------------|
A|-5/7-777-5--------------------------------------------------|
E|------------------------------------------------------------|

After 1st Bridge: Why don't you...
e|------------------------------------------------------------|
B|------------------------------------------------------------|
G|-777777-----------------------------------------------------|x2
D|-777777-555555-222222-555555--------------------------------|
A|-555555-555555-222222-555555--------------------------------|
E|--------555555-222222-555555--------------------------------|

Pre Chorus: Ah do hope...
e|------------------------------------------------------------|
B|------------------------------------------------------------|
G|------------------------------------------------------------|
D|-9999999-5-7-9999999-5-7-9999999----------------------------|
A|-9999999-5-7-9999999-5-7-9999999----------------------------|
E|-9999999-5-7-9999999-5-7-9999999----------------------------|


2nd Bridge:
e|-------------------------------------------------------------|
B|-------------------------------------------------------------|
G|-777777-----12-11-9-7----------------------------------------|
D|-xxxxx7-555-x--x--x-x-99999-77777-00005----------------------|
A|-555555-555-10-9--7-5-99999-77777-00005----------------------|
E|--------555-----------99999-77777-00005----------------------|
                                    ****

2nd Bridge Cont.
e|-------------------------------------------------------------|
B|-------------------------------------------------------------|
G|-777777-----12-11-9-7----------------------------------------|
D|-xxxxx7-555-x--x--x-x-999-777--------------------------------|
A|-555555-555-10-9--7-5-999-777--------------------------------|
E|--------555-----------999-777--------------------------------|


it's a pretty easy song. if u have any problems or corrections email me but i think
all of this is correct. have fun.
Comments