New Found Glory - Everything I Do I Do It For You Chords & Tabs

 

Everything I Do I Do It For You Chords & Tabs

New Found Glory Chords & Tabs

Version: 2 Type: Tab 0 ratings
1 star 2 stars 3 stars 4 stars 5 stars
comments

Everything I Do I Do It For You Tab

Artist:A New Found Glory
Song: (Everything I Do) I Do IT For You
Cd:From your screen to the stereo
Tabbed By: Zach 

Buy the album and learn the songs it will impress all your friends!

Intro 

e---1-----1-----1------2--4--2--1---------------------------4---------| 
B-----2-----2-----2-------------------4-----4-----4-------4-----4----1| 
G----------------------------------------5-----5----5-----------------| 
D---------------------------------------------------------------------| 
A---------------------------------------------------------------------| 
E---------------------------------------------------------------------| 

e------------------------2---------1----------------------------------| 
B---2-----2-----2------2-----2--------------4----4--------------------| 
G-----3-----3-----3------------------------------5--------------------| 
D---------------------------------------------------------------------| 
A---------------------------------------------------------------------| 
E---------------------------------------------------------------------| 

Verses 

e|--------------------------------------------------------------------| 
B|--------------------------------------------------------------------| 
G|-----------------6-----------------6--------------------------------| 
D|-----------------6-----------------6--8---------------6-------------| 
A|-----------------4-----------------3--8---------------6-------------| 
E|--------------------------------------6---------------4-------------| 
    
e|--------------------------------------------------------------------| 
B|--------------------------------------------------------------------| 
G|----------------------------------6---------------------------------| 
D|--------------8-------------------6------6-6------------------------| 
A|--------------8-------------------4------6-6------------------------| 
E|--------------6--------------------------4-4------------------------| 

Chorus 
[ Tab from: http://www.guitartabs.cc/tabs/n/new_found_glory/everything_i_do_i_do_it_for_you_tab_ver_2.html ]
e|--------------------------------------------------------------------| 
B|--------------------------------------------------------------------| 
G|-------------6---------------6----------6----------6-6--------------| 
D|-------------6---------------6----------6----------6-6--------------| 
A|-------------4---------------3----------4----------4-4--------------| 
E|--------------------------------------------------------------------| 



  theres no love... 
e|---------------------------------------------------------------------------| 
B|---------------------------------------------------------------------------| 
G|-4-4-4-4-4-4-4-4-4-4-4-4---------------------------4-4-4-4-4-4-4-4-4-4-4-4-| 
D|-4-4-4-4-4-4-4-4-4-4-4-4--2-2-2-2-2-2-2-2-2-2-2-2--4-4-4-4-4-4-4-4-4-4-4-4-| 
A|-2-2-2-2-2-2-2-2-2-2-2-2--2-2-2-2-2-2-2-2-2-2-2-2--2-2-2-2-2-2-2-2-2-2-2-2-| 
E|--------------------------0-0-0-0-0-0-0-0-0-0-0-0--------------------------| 

e|---------------------------------------------------------------------------| 
B|---------------------------------------------------------------------------| 
G|--------------------------6-6-6-6-6-6-6-6-6-6-6----------------------------| 
D|-4-4-4-4-4-4-4-4-4-4-4-4--6-6-6-6-6-6-6-6-6-6-6--6-6-6-6-6-6-6-6-6-6-6-----| 
A|-4-4-4-4-4-4-4-4-4-4-4-4--4-4-4-4-4-4-4-4-4-4-4--6-6-6-6-6-6-6-6-6-6-6-----| 
E|-2-2-2-2-2-2-2-2-2-2-2-2-------------------------4-4-4-4-4-4-4-4-4-4-4-----| 

e|---------------------------------------------------------------------------| 
B|---------------------------------------------------------------------------| 
G|-8-8-8-8-8-8-8-8-8-8-8-8--6--6---------------------------------------------| 
D|-8-8-8-8-8-8-8-8-8-8-8-8--6--6--1--3--------1--3---------------------------| 
A|-6-6-6-6-6-6-6-6-6-6-6-6--4--4--------1--4--------1--4---------------------| 
E|---------------------------------------------------------------------------| 

Solo 

e|---------------------------------9---9-------------------------------------| 
B|---6-66--------------------6-9---9-BEND-9-h11-9----------------------------| 
G|--------8-6---6--8-6--6-6-----------------------------------10--10 \8-6----| 
D|-------------8--------8----------------------------------------------------| 
A|---------------------------------------------------------------------------| 
E|---------------------------------------------------------------------------| 

Comments