New Found Glory - Ending In Tragedy Acoustic Chords & Tabs

 

Ending In Tragedy Acoustic Chords & Tabs

New Found Glory Chords & Tabs

Version: 1 Type: Tab 0 ratings
1 star 2 stars 3 stars 4 stars 5 stars
comments

Ending In Tragedy Acoustic Tab

   
-------------------------------------------------------------------------------
	        Ending In Tragedy (Acoustic) - New Found Glory
-------------------------------------------------------------------------------
Tabbed by: Mark Plummer
Email: happytreefriends_firstblood@hotmail.com

If you haven't heard this great acoustic version and want to just give me an 
e-mail and i'll e-mail it to you cause that's how kind I am! Then you can play
along with this tab i've done for you!

Enjoi..........a lot of effort went into this

Tuning: Standard (EADGBe)

Intro
e|---------------------------------------------------------------------------|
B|---4------4------4------4------4------4------4------4------4------4--------|
G|---4------4------4------4------4------4------4------4------4------4--------|
D|-6---6--4---4--2---2--4---4--6---6--4---4--2---2--4---4--6---6--4---4------|
A|---------------------------------------------------------------------------|
E|---------------------------------------------------------------------------|

e|---------------------------------------------------------------------------|
B|---4------4------4------4------4------4------------------------------------|
G|---4------4------4------4------4--------4----------------------------------|
D|-2---2--4---4--6---6--4---4--2---2--4-----4--------------------------------|
A|---------------------------------------------------------------------------|
E|---------------------------------------------------------------------------|

Verse
e|---------------------------------------------------------------------------|
B|---4--4----4--4----4--4----4--4----------4--4----4--4----4-----------------|
G|---4--4----4--4----4--4----4--4----------4--4----4--4----4-------4---------|
D|-6-------4-------2-------4-------(x3)--6-------4-------2---2---4---4-------|
A|---------------------------------------------------------------------------|
E|---------------------------------------------------------------------------|


e|---------------------------------------------------------------------------|
B|---4------4------4------4------4------4------4------4----------------------|
G|---4------4------4------4------4------4------4--------4--------------------|
D|-6---6--4---4--2---2--4---4--6---6--4---4--2---2--4-----4------------------|
A|---------------------------------------------------------------------------|
E|---------------------------------------------------------------------------|
                                                             E5      F#5
e|---------------------------------------------------------------------------|
B|---4--4----4--4----4--4----4--4----------4--4----4--4----------------------|
G|---4--4----4--4----4--4----4--4----------4--4----4--4----------------------|
D|-6-------4-------2-------4-------(x3)--6-------4---------------------------|
A|---------------------------------------------------------------------------|
E|---------------------------------------------------------------------------|

Chorus
                                                       B5      F#5       E5 
B5       F#5          E5         B5  F#5               x--------x--------x--
Yeah         Now it's our time.                        x--------x--------x--
     B5    F#5           E5                            4--------x--------x--
And  yeah.      Now it's our time  and I'll            4--------4--------2--
B5              F#5                                    2--------4--------2--
see you on  the oth-er     side.                       x--------2--------0--

e|---------------------------------------------------------------------------|
B|---4------4------4------4------4------4------4------4----------------------|
G|---4------4------4------4------4------4------4--------4--------------------|
D|-6---6--4---4--2---2--4---4--6---6--4---4--2---2--4-----4------------------|
A|---------------------------------------------------------------------------|
E|---------------------------------------------------------------------------|
[ Tab from: http://www.guitartabs.cc/tabs/n/new_found_glory/ending_in_tragedy_acoustic_tab.html ]
Verse
e|---------------------------------------------------------------------------|
B|---4--4----4--4----4--4----4--4----4--4----4--4----4--4----4---------------|
G|---4--4----4--4----4--4----4--4----4--4----4--4----4--4------4-------------|
D|-6-------4-------2-------4-------6-------4-------2-------4-----4-----------|
A|---------------------------------------------------------------------------|
E|---------------------------------------------------------------------------|
   
e|---------------------------------------------------------------------------|
B|---4--4----4--4----4--4----4--4----4--4----4--4----------------------------|
G|---4--4----4--4----4--4----4--4----4--4----4--4----4------4----------------|
D|-6-------4-------2-------4-------6-------4-------2---2--4---4--------------|
A|---------------------------------------------------------------------------|
E|---------------------------------------------------------------------------|

e|---------------------------------------------------------------------------|
B|---4------4------4------4------4------4------4------4----------------------|
G|---4------4------4------4------4------4------4------4----------------------|
D|-6---6--4---4--2---2--4---4--6---6--4---4--2---2--4---4--------------------|
A|---------------------------------------------------------------------------|
E|---------------------------------------------------------------------------|
                                                      E5            F#5
e|---------------------------------------------------------------------------|
B|---4--4----4--4----4--4----4--4----4--4----4--4----------------------------|
G|---4--4----4--4----4--4----4--4----4--4----4--4----------------------------|
D|-6-------4-------2-------4-------6-------4---------------------------------|
A|---------------------------------------------------------------------------|
E|---------------------------------------------------------------------------|

Chorus
                                                         G#m7 C#7sus2 E5vii G5
Bridge                                                   -x------4------x----x
                                                         -x------4------x----x
G#m7             C#7sus2          E5vii                  -4------4------9---12
Why      would      I       take  it too  far            -4------6------9---12
G#m7                C#7sus2                  E5vii       -x------4------7---10
with     not        think-ing a - bout the   end at all. -4------x------x----x
      G#m7                         C#7sus2
if a  for-tune could say what the  fu-ture will bring  then
E5vii                                        G#m7                 C#7sus2
I'm not convinced, it's end-ing in tra-e-dy  and most of all it's in my control
   E5vii              G5                 
to end                it                 

Chorus

B5       F#5            E5           B5  F#5
all            Now it's our time.              And
B5       F#5            E5(pm)             B5             F#5
yeah.          Now it's our time  and I'll see you on the oth-er side
B5       F#5            E5                     B5       F#5
               Now it's our time.              Yeah           Now it's
E5                   B5             F#5
our time   and i'll  see you on the other side.

Outro   
e|---------------------------------------------------------------------------|
B|---4------4------4------4------4-----4-------------------------------------|
G|---4------4------4------4--------4---4---x---------------------------------|
D|-6---6--4---4--2---2--4---4--6-----4---4-4---------------------------------|
A|-----------------------------------------2---------------------------------|
E|---------------------------------------------------------------------------|


| x  Mute note
===============================================================================
Comments