New Found Glory - Dressed To Kill Chords & Tabs

 

Dressed To Kill Chords & Tabs

New Found Glory Chords & Tabs

Version: 7 Type: Tab 0 ratings
1 star 2 stars 3 stars 4 stars 5 stars
comments

Dressed To Kill Tab

I have seen many many wrongs versions for this song, specailly the intro. gots 
any questions bbond123@bellsouth.net it took a while to do this

Intro
e|---------------------------------------------------------
B|---------------------------------------------------------
G|--7--9---------------------------------------------------
d|--7--9---------------------------------------------------
A|--5--7---------------------------------------------------
E|---------------------------------------------------------

Guitar 1
e|---------------------------------------------------------
B|---------------------------------------------------------
G|------------7--9-----------------------------------------
d|--7---6--4--7--9-----------------------------------------
A|--7---6--4--5--7-----------------------------------------
E|--5---4--2-----------------------------------------------

Guitar 2
e|-----12------10-9----------------------------------------
B|---10----------------------------------------------------
G|-99--------99--------------------------------------------
d|---------------------------------------------------------
A|---------------------------------------------------------
E|---------------------------------------------------------

Verse: "I know it's hard for you..." (Palm muted)
e|---------------------------------------------------------
B|---------------------------------------------------------
G|---------------------------------------------------------
d|---7--6--4--2--------------------------------------------
A|---7--6--4--2--------------------------------------------
E|---5--4--2--0--------------------------------------------
[ Tab from: http://www.guitartabs.cc/tabs/n/new_found_glory/dressed_to_kill_tab_ver_7.html ]
  "Owe it to the world..."
e|---------------------------------------------------------
B|---------------------------------------------------------
G|---------------------------------------------------------
d|--7--9--4--2---------------------------------------------
A|--7--9--4--2---------------------------------------------
E|--5--7--2--0---------------------------------------------

  "You're not here..."
e|---------------------------------------------------------
B|---------------------------------------------------------
G|------------7--6-----------------------------------------
d|--7-ring----7--6-----------------------------------------
A|--7---------5--4-----------------------------------------
E|--5------------------------------------------------------

Chorus  "I can't dream anymore..."
e|---------------------------------------------------------
B|---------------------------------------------------------
G|------------7--9-----------------------------------------
d|--7---6--4--7--9-----------------------------------------
A|--7---6--4--5--7-----------------------------------------
E|--5---4--2-----------------------------------------------

"Cheer up my friends all say..."
e|---------------------------------------------------------
B|---------------------------------------------------------
G|--7--4---------------------------------------------------
d|--7--4--4--6--7---000--7--000----------------------------
A|--5--2--4--6--7---000--7--000----------------------------
E|--------2--4--5---000--5--000----------------------------

e|---------------------------------------------------------
B|---------10----------------------------------------------
G|-----9------------9---7-------6--------------------------
d|-7------------7------------7-----7-----------------------
A|---------------------------------------------------------
E|---------------------------------------------------------
Comments