New Found Glory - Dressed To Kill Chords & Tabs

 

Dressed To Kill Chords & Tabs

New Found Glory Chords & Tabs

Version: 6 Type: Tab 0 ratings
1 star 2 stars 3 stars 4 stars 5 stars
comments

Dressed To Kill Tab

ARTIST: NEW FOUND GLORY
TITLE: DRESSED TO KILL
ALBUM: NEW FOUND GLORY
TABBED BY: MARK BROWN
E-MAIL: MARKUSBROWNUS2@HOTMAIL.COM

/ SLIDE
* REPEAT EIGHT TIMES
P.M PALM MUTE

PRE-INTRO
e--------------------|
B--------------------|
G--7--9--------------|
D--7--9--------------|
A--5--7--------------|
E--------------------|

INTRO (LEAD)
e-----12----10---9--|
B-10----------------|
G-------------------|
D-------------------|
A-------------------|
E-------------------|

INTRO (RHYTHM)
e----------------------------------------------------------|
B----------------------------------------------------------|
G------------------------7---9-----------------------------|
D-7*---6*---4*-----------7---9-----------------------------|
A-7----6----4------------5---7-----------------------------|
E-5----4----2----------------------------------------------|

VERSE
e----------------------------------------------------------|
B----------------------------------------------------------|
G----------------------------------------------------------|
D-7*\---6*\----4*\---2*------------------------------------|
A-7-\---6-\----4-\---2-------------------------------------|
E-5-\---4-\----2-\---0-------------------------------------|
REPEAT
[ Tab from: http://www.guitartabs.cc/tabs/n/new_found_glory/dressed_to_kill_tab_ver_6.html ]
VERSE 2
e----------------------------------------------------------|
B----------------------------------------------------------|
G----------------------------------------------------------|
D-7*\-6/9\6--4*\2*-----------------------------------------|
A-7-\-6/9\6--4-\2------------------------------------------|
E-5-\-4/7\4--2-\0------------------------------------------|

PRE-CHORUS
e----------------------|
B----------------------|
G------7--6------------|
D-7~---7--6------------|
A-7~---5--4------------|
E-5~-------------------|
PLAY 4X

PLAY CHORUS WITH LEAD ENTERING ON THE THIRD TIME
RHYTHM PLAYED 4X
LEAD PLAYED   8X

VERSE (REPEATED)
VERSE 2
PRE CHORUS 4X
CHORUS

CHORUS BREAKDOWN (ONLY ON SECOND TIME)
e----------------------------------------------------------|
B----------------------------------------------------------|
G-7~----4--------------------------------------------------|
D-7~----4---4----6-7~--------------------------------------|
A-5~----2---4----6-7~--------------------------------------|
E-----------2----4-5~--------------------------------------|

HEAVY RIFF
e----------------------------------------------------------|
B----------------------------------------------------------|
G----------------------------------------------------------|
D-2-2-2-2---2-2-2-2-7--------------------------------------|
A-2-2-2-2---2-2-2-2-7--------------------------------------|
E-0-0-0-0---0-0-0-0-5--------------------------------------|
  P.M....   P.M....

PLAY FOUR TIMES
ON FOURTH TIME PLAY
e-----------------------------------|
B-----------------------------------|
G-----------------------------------|
D-2-2-2-2--2-2-2-2--2-2-2-2--2-2-2-2|
A-2-2-2-2--2-2-2-2--2-2-2-2--2-2-2-2|
E-0-0-0-0--0-0-0-0--0-0-0-0--0-0-0-0|
 P.M.....  P.M....  P.M....  P.M.. MUTE FINAL CHORD

CHORUS
CHORUS BREAKDOWN

THERE ALL DONE, MY FOURTH TAB FINISH WITH MORE STILL TO 
COME!!!
Comments