New Found Glory - Dressed To Kill Chords & Tabs

 

Dressed To Kill Chords & Tabs

New Found Glory Chords & Tabs

Version: 2 Type: Tab 0 ratings
1 star 2 stars 3 stars 4 stars 5 stars
comments

Dressed To Kill Tab

   
Tabbed by Marcus Lubbock

Fat lip (sum 41)

Intro x4 
After 2nd intro guitar 2 palys E for rest of intro

E-4-5-7---4-5-7---4-5-7---4-5-7---------
A---------------------------------7-----
D-------6-------4-------6-------4-------
g---------------------------------------
b---------------------------------------
e---------------------------------------

Verse x2 (part 1)

E-7--------7-7-5-------6-4-2----------------
A-7--7/6/7-9-9-7-7/6/7----------------------
D-9--------9-9-7----------------------------
g-9--------8-8-6----------------------------
b-9--------7-7-5----------------------------
e-7--------7-7-5----------------------------

verse x2 (part 2)

E-7-7-7-7-7-7-7-7---3-3-3-3---5-5-5-5------- 
A-7-7-7-7-7-7-7-7---5-5-5-5---7-7-7-7------- 
D-9-9-9-9-9-9-9-9---5-5-5-5---7-7-7-7-------
g-9-9-9-9-9-9-9-9---4-4-4-4---6-6-6-6-------
b-9-9-9-9-9-9-9-9---3-3-3-3---5-5-5-5-------
e-7-7-7-7-7-7-7-7---3-3-3-3---5-5-5-5-------

Chours x2 (part 1)

E-7-7-7-7--7--7--3--3-3-3-3--4--3--4---------
A-9-9-9-9--7--9--3--5-5-5-5--6--5--6---------
D-9-9-9-9--9--9--5--5-5-5-5--6--5--6---------
g-8-8-8-8--9--8--5--4-4-4-4--5--4--5---------
b-7-7-7-7--9--7--4--3-3-3-3--3--3--3---------
e-7-7-7-7--7--7--3--3-3-3-3--3--3--3---------

Chours (part 2)
[ Tab from: http://www.guitartabs.cc/tabs/n/new_found_glory/dressed_to_kill_tab_ver_2.html ]
E-7--7--3--3-3-3-3--4--3--4---------
A-7--9--3--5-5-5-5--6--5--6---------
D-9--9--5--5-5-5-5--6--5--6---------
g-9--8--5--4-4-4-4--5--4--5---------
b-9--7--4--3-3-3-3--3--3--3---------
e-7--7--3--3-3-3-3--3--3--3---------

Intro x2

   E       E       E       E
E-4-5-7---4-5-7---4-5-7---4-5-7---------
A---------------------------------7-----
D-------6-------4-------6-------4-------
g---------------------------------------
b---------------------------------------
e---------------------------------------

Verse x2 (part 1)

E-7--------7-7-5-------6-4-2----------------
A-7--7/6/7-9-9-7-7/6/7----------------------
D-9--------9-9-7----------------------------
g-9--------8-8-6----------------------------
b-9--------7-7-5----------------------------
e-7--------7-7-5----------------------------

verse x2 (part 2)

E-7-7-7-7-7-7-7-7---3-3-3-3---5-5-5-5------- 
A-7-7-7-7-7-7-7-7---5-5-5-5---7-7-7-7------- 
D-9-9-9-9-9-9-9-9---5-5-5-5---7-7-7-7-------
g-9-9-9-9-9-9-9-9---4-4-4-4---6-6-6-6-------
b-9-9-9-9-9-9-9-9---3-3-3-3---5-5-5-5-------
e-7-7-7-7-7-7-7-7---3-3-3-3---5-5-5-5-------

Chours x2 (part 1)

E-7-7-7-7--7--7--3--3-3-3-3--4--3--4---------
A-9-9-9-9--7--9--3--5-5-5-5--6--5--6---------
D-9-9-9-9--9--9--5--5-5-5-5--6--5--6---------
g-8-8-8-8--9--8--5--4-4-4-4--5--4--5---------
b-7-7-7-7--9--7--4--3-3-3-3--3--3--3---------
e-7-7-7-7--7--7--3--3-3-3-3--3--3--3---------

Chours (part 2)

E-7--7--3--3-3-3-3--4--3--4---------
A-7--9--3--5-5-5-5--6--5--6---------
D-9--9--5--5-5-5-5--6--5--6---------
g-9--8--5--4-4-4-4--5--4--5---------
b-9--7--4--3-3-3-3--3--3--3---------
e-7--7--3--3-3-3-3--3--3--3---------
Comments