New Found Glory - Broken Sound Chords & Tabs

 

Broken Sound Chords & Tabs

New Found Glory Chords & Tabs

Version: 6 Type: Tab 0 ratings
1 star 2 stars 3 stars 4 stars 5 stars
comments

Broken Sound Tab

   
Ive seen other tabs of this song and i wasnt completely satisfied with the way
they sounded so here it goes...


Standard Tuning E A D G B E


-----3--------3-----------------------------3--------3---------------------
------3----------3---------------------------3----------3------------------
-------------------0---0----------------------------------0---0------------
--2------2-0--------0-0------------------2------2-0--------0-0-------------
---------------------3-----3---2-3--------------------------3-----3--------
-----------------------------3---------------------------------------3-----


[ Tab from: http://www.guitartabs.cc/tabs/n/new_found_glory/broken_sound_tab_ver_6.html ]
-----3--------3-----------------------------3--------3---------------------
------3----------3---------------------------3----------3------------------
-------------------0---0----------------------------------0---0------------
--2------2-0--------0-0------------------2------2-0--------0-0-------------
---------------------3-----3---2-3--------------------------3-----3--------
-----------------------------3---------------------------------------3-----



-----------------------------------------------------------------------
-----------------------------------------------------------------------
------0------0-----------------------0------0-----------------------0--
----2------2-------0---------------2------2-------0---------------2----
--2------3-------2---2-----2-3-2-0------3-------2---2-----2-3-2-0------
---------------3---------3--------------------3---------3--------------



--------------------------------------------
--------------------------------------------
------0------------------------0------0-----
----2--------0---------------2------2-------
--3--------2---2-----2-3-2-0------3---------
---------3---------3---------------------3--

Tabbed By  Paul Contreras     (My_DoGs)
Comments