New Found Glory - Broken Sound Chords & Tabs

 

Broken Sound Chords & Tabs

New Found Glory Chords & Tabs

Version: 5 Type: Tab 0 ratings
1 star 2 stars 3 stars 4 stars 5 stars
comments

Broken Sound Tab

   
I'm 100% sure that the intro and verse are right and pretty damn sure that the rhythm
in the end is right, but im not sure about the chorus... i did my best, if anyone else
has any requests on tabs like blink or NFG i would be more than happy to work on
them for u

INTRO AND VERSE
E]----3---------3--------------------------
B]------3---------3------------------------
G]---------------------------0-------------
D]-2-------2-0------0---3------0-----0-----
A]--------------------2------------2-------
E]-------------------------------3---------

E]----3---------3--------------------------
B]------3---------3------------------------
G]---------------------------0-------------
D]-2-------2-0------0---3------0-----------
A]--------------------2--------------------
E]-------------------------------3---------


CHORUS
E]-----------------------------------------
B]-----------------------------------------
G]-----0-------0---------------------------
D]---0---0---0--0----0------0----5p0-------
A]-2-------3--------2------2----------2----
E]----------------3------3-----------------

*VERSE REPEATS*
[ Tab from: http://www.guitartabs.cc/tabs/n/new_found_glory/broken_sound_tab_ver_5.html ]
*CHORUS REPEATS*
except last time play (distortion comes on 
D5)
E]-----------------------------------------
B]-----------------------------------------
G]-----0-------0---555---------------------
D]---0---0---0--0--555---------------------
A]-2-------3-------333---------------------
E]-----------------------------------------


E]-----------------------------------------
B]-----------------------------------------
G]-999-777-----555-------------------------
D]-999-777-555-555-------------------------
A]-777-555-555-333-------------------------
E]---------333-----------------------------
 
     [pm]
E]-----------------------------------------
B]-----------------------------------------
G]-4-[444]-5-[555]-------------------------
D]-4-[444]-5-[555]-5-[555]-5-[555]---------
A]-2-[222]-3-[333]-5-[555]-5-[555]---------
E]-----------------3-[333]-3-[333]---------

*rings
E]-----------------------------------------
B]-----------------------------------------
G]-999-777---------------------------------
D]-999-777-555*----------------------------
A]-777-555-555*----------------------------
E]---------333*----------------------------

Song Tabbed by Dan (eNeFGee)
Comments