New Found Glory - Broken Sound Chords & Tabs

 

Broken Sound Chords & Tabs

New Found Glory Chords & Tabs

Version: 3 Type: Tab 0 ratings
1 star 2 stars 3 stars 4 stars 5 stars
comments

Broken Sound Tab

Title: Broken Sound
Artist: New Found GLory

Standard Tuning
[ Tab from: http://www.guitartabs.cc/tabs/n/new_found_glory/broken_sound_tab_ver_3.html ]
intro
2x then a rest, then start again 4x..then this
e---3------3-----------------|-------------------
B------3------3---3----------|-------------------
G--------0----------0--------|----0---0----0-----
D--2------0----0------0-0----|-----0---0----0----just play around with
A---------------3------------|--2----3-----------the pull offs and picking
E-------------------------3--|-----------3-------

heavy part
e----------------------|-------------------------
B----------------------|-------------------------
G--99--77--55----------|--44--55-----------------
D--99--77--55--555555--|--44--55--55555555-------
A--77--55--33--555555--|--22--33--55555555-------
E--------------333333--|----------33333333-------

just listen and play along with the song to get the number of times
strumed. its really easy.


                             ~joe-called~
Comments